  0
SECTION
  2
HEADER
  9
$ACADVER
  1
AC1015
  9
$ACADMAINTVER
 70
     6
  9
$DWGCODEPAGE
  3
ANSI_1254
  9
$INSBASE
 10
0.0
 20
0.0
 30
0.0
  9
$EXTMIN
 10
0.0
 20
0.0
 30
0.0
  9
$EXTMAX
 10
279.4
 20
215.9
 30
0.0
  9
$LIMMIN
 10
0.0
 20
0.0
  9
$LIMMAX
 10
279.4
 20
215.9
  9
$ORTHOMODE
 70
     0
  9
$REGENMODE
 70
     1
  9
$FILLMODE
 70
     1
  9
$QTEXTMODE
 70
     0
  9
$MIRRTEXT
 70
     1
  9
$LTSCALE
 40
1.0
  9
$ATTMODE
 70
     1
  9
$TEXTSIZE
 40
3.5
  9
$TRACEWID
 40
1.0
  9
$TEXTSTYLE
  7
Standard
  9
$CLAYER
  8
0
  9
$CELTYPE
  6
ByLayer
  9
$CECOLOR
 62
   256
  9
$CELTSCALE
 40
1.0
  9
$DISPSILH
 70
     0
  9
$DIMSCALE
 40
1.0
  9
$DIMASZ
 40
3.5
  9
$DIMEXO
 40
1.0
  9
$DIMDLI
 40
3.75
  9
$DIMRND
 40
0.0
  9
$DIMDLE
 40
0.0
  9
$DIMEXE
 40
1.0
  9
$DIMTP
 40
0.0
  9
$DIMTM
 40
0.0
  9
$DIMTXT
 40
3.5
  9
$DIMCEN
 40
2.5
  9
$DIMTSZ
 40
0.0
  9
$DIMTOL
 70
     0
  9
$DIMLIM
 70
     0
  9
$DIMTIH
 70
     1
  9
$DIMTOH
 70
     1
  9
$DIMSE1
 70
     0
  9
$DIMSE2
 70
     0
  9
$DIMTAD
 70
     1
  9
$DIMZIN
 70
     0
  9
$DIMBLK
  1

  9
$DIMASO
 70
     1
  9
$DIMSHO
 70
     1
  9
$DIMPOST
  1

  9
$DIMAPOST
  1

  9
$DIMALT
 70
     0
  9
$DIMALTD
 70
     3
  9
$DIMALTF
 40
0.0393700787
  9
$DIMLFAC
 40
1.0
  9
$DIMTOFL
 70
     1
  9
$DIMTVP
 40
0.0
  9
$DIMTIX
 70
     0
  9
$DIMSOXD
 70
     0
  9
$DIMSAH
 70
     0
  9
$DIMBLK1
  1

  9
$DIMBLK2
  1

  9
$DIMSTYLE
  2
ISO-25
  9
$DIMCLRD
 70
     0
  9
$DIMCLRE
 70
     0
  9
$DIMCLRT
 70
     0
  9
$DIMTFAC
 40
1.0
  9
$DIMGAP
 40
1.524
  9
$DIMJUST
 70
     0
  9
$DIMSD1
 70
     0
  9
$DIMSD2
 70
     0
  9
$DIMTOLJ
 70
     0
  9
$DIMTZIN
 70
     0
  9
$DIMALTZ
 70
     0
  9
$DIMALTTZ
 70
     0
  9
$DIMUPT
 70
     0
  9
$DIMDEC
 70
     2
  9
$DIMTDEC
 70
     2
  9
$DIMALTU
 70
     2
  9
$DIMALTTD
 70
     3
  9
$DIMTXSTY
  7
Standard
  9
$DIMAUNIT
 70
     0
  9
$DIMADEC
 70
     2
  9
$DIMALTRND
 40
0.0
  9
$DIMAZIN
 70
     0
  9
$DIMDSEP
 70
    44
  9
$DIMATFIT
 70
     3
  9
$DIMFRAC
 70
     0
  9
$DIMLDRBLK
  1

  9
$DIMLUNIT
 70
     2
  9
$DIMLWD
 70
    -2
  9
$DIMLWE
 70
    -2
  9
$DIMTMOVE
 70
     0
  9
$LUNITS
 70
     2
  9
$LUPREC
 70
     2
  9
$SKETCHINC
 40
1.0
  9
$FILLETRAD
 40
10.0
  9
$AUNITS
 70
     0
  9
$AUPREC
 70
     2
  9
$MENU
  1
.
  9
$ELEVATION
 40
0.0
  9
$PELEVATION
 40
0.0
  9
$THICKNESS
 40
0.0
  9
$LIMCHECK
 70
     0
  9
$CHAMFERA
 40
0.0
  9
$CHAMFERB
 40
0.0
  9
$CHAMFERC
 40
0.0
  9
$CHAMFERD
 40
0.0
  9
$SKPOLY
 70
     0
  9
$TDCREATE
 40
2459741.604552488
  9
$TDUCREATE
 40
2459741.479552488
  9
$TDUPDATE
 40
2459741.604552569
  9
$TDUUPDATE
 40
2459741.479552569
  9
$TDINDWG
 40
0.0000000116
  9
$TDUSRTIMER
 40
0.0000000116
  9
$USRTIMER
 70
     1
  9
$ANGBASE
 50
0.0
  9
$ANGDIR
 70
     0
  9
$PDMODE
 70
     0
  9
$PDSIZE
 40
-1.0
  9
$PLINEWID
 40
0.0
  9
$SPLFRAME
 70
     0
  9
$SPLINETYPE
 70
     6
  9
$SPLINESEGS
 70
     8
  9
$HANDSEED
  5
123
  9
$SURFTAB1
 70
     6
  9
$SURFTAB2
 70
     6
  9
$SURFTYPE
 70
     6
  9
$SURFU
 70
     6
  9
$SURFV
 70
     6
  9
$UCSBASE
  2

  9
$UCSNAME
  2

  9
$UCSORG
 10
0.0
 20
0.0
 30
0.0
  9
$UCSXDIR
 10
1.0
 20
0.0
 30
0.0
  9
$UCSYDIR
 10
0.0
 20
1.0
 30
0.0
  9
$UCSORTHOREF
  2

  9
$UCSORTHOVIEW
 70
     0
  9
$UCSORGTOP
 10
0.0
 20
0.0
 30
0.0
  9
$UCSORGBOTTOM
 10
0.0
 20
0.0
 30
0.0
  9
$UCSORGLEFT
 10
0.0
 20
0.0
 30
0.0
  9
$UCSORGRIGHT
 10
0.0
 20
0.0
 30
0.0
  9
$UCSORGFRONT
 10
0.0
 20
0.0
 30
0.0
  9
$UCSORGBACK
 10
0.0
 20
0.0
 30
0.0
  9
$PUCSBASE
  2

  9
$PUCSNAME
  2

  9
$PUCSORG
 10
0.0
 20
0.0
 30
0.0
  9
$PUCSXDIR
 10
1.0
 20
0.0
 30
0.0
  9
$PUCSYDIR
 10
0.0
 20
1.0
 30
0.0
  9
$PUCSORTHOREF
  2

  9
$PUCSORTHOVIEW
 70
     0
  9
$PUCSORGTOP
 10
0.0
 20
0.0
 30
0.0
  9
$PUCSORGBOTTOM
 10
0.0
 20
0.0
 30
0.0
  9
$PUCSORGLEFT
 10
0.0
 20
0.0
 30
0.0
  9
$PUCSORGRIGHT
 10
0.0
 20
0.0
 30
0.0
  9
$PUCSORGFRONT
 10
0.0
 20
0.0
 30
0.0
  9
$PUCSORGBACK
 10
0.0
 20
0.0
 30
0.0
  9
$USERI1
 70
     0
  9
$USERI2
 70
     0
  9
$USERI3
 70
     0
  9
$USERI4
 70
     0
  9
$USERI5
 70
     0
  9
$USERR1
 40
0.0
  9
$USERR2
 40
0.0
  9
$USERR3
 40
0.0
  9
$USERR4
 40
0.0
  9
$USERR5
 40
0.0
  9
$WORLDVIEW
 70
     1
  9
$SHADEDGE
 70
     3
  9
$SHADEDIF
 70
    70
  9
$TILEMODE
 70
     1
  9
$MAXACTVP
 70
    64
  9
$PINSBASE
 10
0.0
 20
0.0
 30
0.0
  9
$PLIMCHECK
 70
     0
  9
$PEXTMIN
 10
1.0000000000E+20
 20
1.0000000000E+20
 30
1.0000000000E+20
  9
$PEXTMAX
 10
-1.0000000000E+20
 20
-1.0000000000E+20
 30
-1.0000000000E+20
  9
$PLIMMIN
 10
0.0
 20
0.0
  9
$PLIMMAX
 10
420.0
 20
297.0
  9
$UNITMODE
 70
     0
  9
$VISRETAIN
 70
     1
  9
$PLINEGEN
 70
     0
  9
$PSLTSCALE
 70
     1
  9
$TREEDEPTH
 70
  3020
  9
$CMLSTYLE
  2
Standard
  9
$CMLJUST
 70
     0
  9
$CMLSCALE
 40
20.0
  9
$PROXYGRAPHICS
 70
     1
  9
$MEASUREMENT
 70
     1
  9
$CELWEIGHT
370
    -1
  9
$ENDCAPS
280
     0
  9
$JOINSTYLE
280
     0
  9
$LWDISPLAY
290
     1
  9
$INSUNITS
 70
     4
  9
$HYPERLINKBASE
  1

  9
$STYLESHEET
  1

  9
$XEDIT
290
     1
  9
$CEPSNTYPE
380
     0
  9
$PSTYLEMODE
290
     1
  9
$FINGERPRINTGUID
  2
{cd658f3b-0da1-4547-a290-88125ed0d078}
  9
$VERSIONGUID
  2
{FAEB1C32-E019-11D5-929B-00C0DF256EC4}
  9
$EXTNAMES
290
     1
  9
$PSVPSCALE
 40
0.0
  9
$OLESTARTUP
290
     0
  0
ENDSEC
  0
SECTION
  2
CLASSES
  0
CLASS
  1
ACDBDICTIONARYWDFLT
  2
AcDbDictionaryWithDefault
  3
ObjectDBX Classes
 90
        0
280
     0
281
     0
  0
CLASS
  1
VISUALSTYLE
  2
AcDbVisualStyle
  3
ObjectDBX Classes
 90
     4095
280
     0
281
     0
  0
CLASS
  1
MATERIAL
  2
AcDbMaterial
  3
ObjectDBX Classes
 90
     1153
280
     0
281
     0
  0
CLASS
  1
SCALE
  2
AcDbScale
  3
ObjectDBX Classes
 90
     1153
280
     0
281
     0
  0
CLASS
  1
TABLESTYLE
  2
AcDbTableStyle
  3
ObjectDBX Classes
 90
     4095
280
     0
281
     0
  0
CLASS
  1
MLEADERSTYLE
  2
AcDbMLeaderStyle
  3
ACDB_MLEADERSTYLE_CLASS
 90
     4095
280
     0
281
     0
  0
CLASS
  1
SUN
  2
AcDbSun
  3
SCENEOE
 90
     1153
280
     0
281
     0
  0
CLASS
  1
ACDBPLACEHOLDER
  2
AcDbPlaceHolder
  3
ObjectDBX Classes
 90
        0
280
     0
281
     0
  0
CLASS
  1
LAYOUT
  2
AcDbLayout
  3
ObjectDBX Classes
 90
        0
280
     0
281
     0
  0
ENDSEC
  0
SECTION
  2
TABLES
  0
TABLE
  2
VPORT
  5
8
330
0
100
AcDbSymbolTable
 70
     1
  0
VPORT
  5
29
330
8
100
AcDbSymbolTableRecord
100
AcDbViewportTableRecord
  2
*Active
 70
     0
 10
0.0
 20
0.0
 11
1.0
 21
1.0
 12
139.7
 22
107.95
 13
0.0
 23
0.0
 14
10.0
 24
10.0
 15
10.0
 25
10.0
 16
0.0
 26
0.0
 36
1.0
 17
0.0
 27
0.0
 37
0.0
 40
215.9
 41
1.2941176471
 42
50.0
 43
0.0
 44
0.0
 50
0.0
 51
0.0
 71
     0
 72
  2000
 73
     1
 74
     3
 75
     0
 76
     0
 77
     0
 78
     0
281
     0
 65
     1
110
0.0
120
0.0
130
0.0
111
1.0
121
0.0
131
0.0
112
0.0
122
1.0
132
0.0
 79
     0
146
0.0
  0
ENDTAB
  0
TABLE
  2
LTYPE
  5
5
330
0
100
AcDbSymbolTable
 70
     6
  0
LTYPE
  5
14
330
5
100
AcDbSymbolTableRecord
100
AcDbLinetypeTableRecord
  2
ByBlock
 70
     0
  3

 72
    65
 73
     0
 40
0.0
  0
LTYPE
  5
15
330
5
100
AcDbSymbolTableRecord
100
AcDbLinetypeTableRecord
  2
ByLayer
 70
     0
  3

 72
    65
 73
     0
 40
0.0
  0
LTYPE
  5
16
330
5
100
AcDbSymbolTableRecord
100
AcDbLinetypeTableRecord
  2
Continuous
 70
     0
  3
Solid line
 72
    65
 73
     0
 40
0.0
  0
LTYPE
  5
6E
330
5
100
AcDbSymbolTableRecord
100
AcDbLinetypeTableRecord
  2
HIDDEN
 70
     0
  3
Hidden __ __ __ __ __ __ __ __ __ __ __ __ __ __
 72
    65
 73
     2
 40
1.905
 49
1.27
 74
     0
 49
-0.635
 74
     0
  0
LTYPE
  5
6F
330
5
100
AcDbSymbolTableRecord
100
AcDbLinetypeTableRecord
  2
PHANTOM
 70
     0
  3
Phantom ______  __  __  ______  __  __  ______
 72
    65
 73
     6
 40
12.7
 49
6.35
 74
     0
 49
-1.27
 74
     0
 49
1.27
 74
     0
 49
-1.27
 74
     0
 49
1.27
 74
     0
 49
-1.27
 74
     0
  0
LTYPE
  5
70
330
5
100
AcDbSymbolTableRecord
100
AcDbLinetypeTableRecord
  2
CENTER
 70
     0
  3
Center ____ _ ____ _ ____ _ ____ _ ____ _ ____
 72
    65
 73
     4
 40
10.16
 49
6.35
 74
     0
 49
-1.27
 74
     0
 49
1.27
 74
     0
 49
-1.27
 74
     0
  0
LTYPE
  5
71
330
5
100
AcDbSymbolTableRecord
100
AcDbLinetypeTableRecord
  2
CENTERX2
 70
     0
  3
Center (2x) ________  __  ________  __  _____
 72
    65
 73
     4
 40
20.32
 49
12.7
 74
     0
 49
-2.54
 74
     0
 49
2.54
 74
     0
 49
-2.54
 74
     0
  0
LTYPE
  5
72
330
5
100
AcDbSymbolTableRecord
100
AcDbLinetypeTableRecord
  2
DOT2
 70
     0
  3
Dot (.5x) ........................................
 72
    65
 73
     2
 40
0.635
 49
0.0
 74
     0
 49
-0.635
 74
     0
  0
ENDTAB
  0
TABLE
  2
LAYER
  5
2
330
0
100
AcDbSymbolTable
 70
    17
  0
LAYER
  5
10
330
2
100
AcDbSymbolTableRecord
100
AcDbLayerTableRecord
  2
0
 70
     0
 62
     7
  6
Continuous
370
    -3
390
F
  0
LAYER
  5
73
330
2
100
AcDbSymbolTableRecord
100
AcDbLayerTableRecord
  2
FORMAT
 70
     0
 62
     7
  6
Continuous
370
    -3
390
F
  0
LAYER
  5
74
330
2
100
AcDbSymbolTableRecord
100
AcDbLayerTableRecord
  2
YARDIMCI_GEOMETRI
 70
     0
 62
    -6
  6
Continuous
290
     0
370
    -3
390
F
  0
LAYER
  5
75
330
2
100
AcDbSymbolTableRecord
100
AcDbLayerTableRecord
  2
SAYFA_CERCEVESI
 70
     0
 62
     7
  6
Continuous
370
    25
390
F
  0
LAYER
  5
76
330
2
100
AcDbSymbolTableRecord
100
AcDbLayerTableRecord
  2
ANTET
 70
     0
 62
     7
  6
Continuous
370
    -3
390
F
  0
LAYER
  5
77
330
2
100
AcDbSymbolTableRecord
100
AcDbLayerTableRecord
  2
OLCU
 70
     0
 62
   150
  6
Continuous
370
    -3
390
F
  0
LAYER
  5
78
330
2
100
AcDbSymbolTableRecord
100
AcDbLayerTableRecord
  2
METIN
 70
     0
 62
    96
  6
Continuous
370
    -3
390
F
  0
LAYER
  5
79
330
2
100
AcDbSymbolTableRecord
100
AcDbLayerTableRecord
  2
BALON
 70
     0
 62
     5
  6
Continuous
370
    -3
390
F
  0
LAYER
  5
7A
330
2
100
AcDbSymbolTableRecord
100
AcDbLayerTableRecord
  2
VURGU
 70
     0
 62
     7
  6
Continuous
370
    -3
390
F
  0
LAYER
  5
7B
330
2
100
AcDbSymbolTableRecord
100
AcDbLayerTableRecord
  2
SILIK
 70
     0
 62
     7
  6
Continuous
370
    -3
390
F
  0
LAYER
  5
7C
330
2
100
AcDbSymbolTableRecord
100
AcDbLayerTableRecord
  2
MODEL
 70
     0
 62
     7
  6
Continuous
370
    -3
390
F
  0
LAYER
  5
7D
330
2
100
AcDbSymbolTableRecord
100
AcDbLayerTableRecord
  2
DETAYLANDıRMA
 70
     0
 62
   190
  6
Continuous
370
    -3
390
F
  0
LAYER
  5
7E
330
2
100
AcDbSymbolTableRecord
100
AcDbLayerTableRecord
  2
TOLERANS
 70
     0
 62
   230
  6
Continuous
370
    -3
390
F
  0
LAYER
  5
7F
330
2
100
AcDbSymbolTableRecord
100
AcDbLayerTableRecord
  2
MERKEZ_CIZGILERI
 70
     0
 62
    30
  6
Continuous
370
    -3
390
F
  0
LAYER
  5
80
330
2
100
AcDbSymbolTableRecord
100
AcDbLayerTableRecord
  2
KESIT-DETAY_CIZGILERI
 70
     0
 62
     7
  6
Continuous
370
    -3
390
F
  0
LAYER
  5
81
330
2
100
AcDbSymbolTableRecord
100
AcDbLayerTableRecord
  2
\U+041E\U+0421\U+0415\U+0412\U+042B\U+0415
 70
     0
 62
     7
  6
Continuous
370
    -3
390
F
  0
LAYER
  5
82
330
2
100
AcDbSymbolTableRecord
100
AcDbLayerTableRecord
  2
\U+0412\U+041E\U+0414\U+042F\U+041D\U+042B\U+0415_\U+0417\U+041D\U+0410\U+041A\U+0418
 70
     0
 62
    11
  6
Continuous
370
    -3
390
F
  0
ENDTAB
  0
TABLE
  2
STYLE
  5
3
330
0
100
AcDbSymbolTable
 70
     1
  0
STYLE
  5
11
330
3
100
AcDbSymbolTableRecord
100
AcDbTextStyleTableRecord
  2
Standard
 70
     0
 40
0.0
 41
1.0
 50
0.0
 71
     0
 42
3.5
  3
txt
  4

  0
ENDTAB
  0
TABLE
  2
VIEW
  5
6
330
0
100
AcDbSymbolTable
 70
     0
  0
ENDTAB
  0
TABLE
  2
UCS
  5
7
330
0
100
AcDbSymbolTable
 70
     0
  0
ENDTAB
  0
TABLE
  2
APPID
  5
9
330
0
100
AcDbSymbolTable
 70
     1
  0
APPID
  5
12
330
9
100
AcDbSymbolTableRecord
100
AcDbRegAppTableRecord
  2
ACAD
 70
     0
  0
ENDTAB
  0
TABLE
  2
DIMSTYLE
  5
A
330
0
100
AcDbSymbolTable
 70
     1
100
AcDbDimStyleTable
  0
DIMSTYLE
105
27
330
A
100
AcDbSymbolTableRecord
100
AcDbDimStyleTableRecord
  2
ISO-25
 70
     0
 41
2.5
 42
0.625
 43
3.75
 44
1.25
 73
     0
 74
     0
 77
     1
 78
     8
140
2.5
141
2.5
143
0.0393700787
147
0.625
171
     3
172
     1
178
     0
271
     2
272
     2
274
     3
278
    44
283
     0
284
     8
340
11
  0
ENDTAB
  0
TABLE
  2
BLOCK_RECORD
  5
1
330
0
100
AcDbSymbolTable
 70
     5
  0
BLOCK_RECORD
  5
1F
330
1
100
AcDbSymbolTableRecord
100
AcDbBlockTableRecord
  2
*Model_Space
340
22
  0
BLOCK_RECORD
  5
1B
330
1
100
AcDbSymbolTableRecord
100
AcDbBlockTableRecord
  2
*Paper_Space
340
1E
  0
BLOCK_RECORD
  5
23
330
1
100
AcDbSymbolTableRecord
100
AcDbBlockTableRecord
  2
*Paper_Space0
340
26
  0
BLOCK_RECORD
  5
A5
330
1
100
AcDbSymbolTableRecord
100
AcDbBlockTableRecord
  2
SW_CENTERMARKSYMBOL_0
340
0
102
{BLKREFS
331
B0
102
}
  0
BLOCK_RECORD
  5
C1
330
1
100
AcDbSymbolTableRecord
100
AcDbBlockTableRecord
  2
SW_CENTERMARKSYMBOL_1
340
0
102
{BLKREFS
331
CC
102
}
  0
BLOCK_RECORD
  5
DE
330
1
100
AcDbSymbolTableRecord
100
AcDbBlockTableRecord
  2
SW_CENTERMARKSYMBOL_2
340
0
102
{BLKREFS
331
E9
102
}
  0
BLOCK_RECORD
  5
F9
330
1
100
AcDbSymbolTableRecord
100
AcDbBlockTableRecord
  2
SW_CENTERMARKSYMBOL_3
340
0
102
{BLKREFS
331
104
102
}
  0
ENDTAB
  0
ENDSEC
  0
SECTION
  2
BLOCKS
  0
BLOCK
  5
20
330
1F
100
AcDbEntity
  8
0
100
AcDbBlockBegin
  2
*Model_Space
 70
     0
 10
0.0
 20
0.0
 30
0.0
  3
*Model_Space
  1

  0
ENDBLK
  5
21
330
1F
100
AcDbEntity
  8
0
100
AcDbBlockEnd
  0
BLOCK
  5
1C
330
1B
100
AcDbEntity
 67
     1
  8
0
100
AcDbBlockBegin
  2
*Paper_Space
 70
     0
 10
0.0
 20
0.0
 30
0.0
  3
*Paper_Space
  1

  0
ENDBLK
  5
1D
330
1B
100
AcDbEntity
 67
     1
  8
0
100
AcDbBlockEnd
  0
BLOCK
  5
24
330
23
100
AcDbEntity
  8
0
100
AcDbBlockBegin
  2
*Paper_Space0
 70
     0
 10
0.0
 20
0.0
 30
0.0
  3
*Paper_Space0
  1

  0
ENDBLK
  5
25
330
23
100
AcDbEntity
  8
0
100
AcDbBlockEnd
  0
BLOCK
  5
A6
330
A5
100
AcDbEntity
  8
0
100
AcDbBlockBegin
  2
SW_CENTERMARKSYMBOL_0
 70
     0
 10
0.0
 20
0.0
 30
0.0
  3
SW_CENTERMARKSYMBOL_0
  1

  0
LINE
  5
A8
330
A5
100
AcDbEntity
  8
FORMAT
 62
     0
100
AcDbLine
 10
0.0
 20
0.0
 30
0.0
 11
0.0
 21
2.5
 31
0.0
  0
LINE
  5
A9
330
A5
100
AcDbEntity
  8
FORMAT
 62
     0
100
AcDbLine
 10
0.0
 20
0.0
 30
0.0
 11
-2.5
 21
0.0
 31
0.0
  0
LINE
  5
AA
330
A5
100
AcDbEntity
  8
FORMAT
 62
     0
100
AcDbLine
 10
0.0
 20
0.0
 30
0.0
 11
0.0
 21
-2.5
 31
0.0
  0
LINE
  5
AB
330
A5
100
AcDbEntity
  8
FORMAT
 62
     0
100
AcDbLine
 10
0.0
 20
0.0
 30
0.0
 11
2.5
 21
0.0
 31
0.0
  0
LINE
  5
AC
330
A5
100
AcDbEntity
  8
FORMAT
 62
     0
100
AcDbLine
 10
0.0
 20
5.0
 30
0.0
 11
0.0
 21
43.0
 31
0.0
  0
LINE
  5
AD
330
A5
100
AcDbEntity
  8
FORMAT
 62
     0
100
AcDbLine
 10
-5.0
 20
0.0
 30
0.0
 11
-43.0
 21
0.0
 31
0.0
  0
LINE
  5
AE
330
A5
100
AcDbEntity
  8
FORMAT
 62
     0
100
AcDbLine
 10
0.0
 20
-5.0
 30
0.0
 11
0.0
 21
-43.0
 31
0.0
  0
LINE
  5
AF
330
A5
100
AcDbEntity
  8
FORMAT
 62
     0
100
AcDbLine
 10
5.0
 20
0.0
 30
0.0
 11
43.0
 21
0.0
 31
0.0
  0
ENDBLK
  5
A7
330
A5
100
AcDbEntity
  8
0
100
AcDbBlockEnd
  0
BLOCK
  5
C2
330
C1
100
AcDbEntity
  8
0
100
AcDbBlockBegin
  2
SW_CENTERMARKSYMBOL_1
 70
     0
 10
0.0
 20
0.0
 30
0.0
  3
SW_CENTERMARKSYMBOL_1
  1

  0
LINE
  5
C4
330
C1
100
AcDbEntity
  8
FORMAT
 62
     0
100
AcDbLine
 10
0.0
 20
0.0
 30
0.0
 11
0.0
 21
2.5
 31
0.0
  0
LINE
  5
C5
330
C1
100
AcDbEntity
  8
FORMAT
 62
     0
100
AcDbLine
 10
0.0
 20
0.0
 30
0.0
 11
-2.5
 21
0.0
 31
0.0
  0
LINE
  5
C6
330
C1
100
AcDbEntity
  8
FORMAT
 62
     0
100
AcDbLine
 10
0.0
 20
0.0
 30
0.0
 11
0.0
 21
-2.5
 31
0.0
  0
LINE
  5
C7
330
C1
100
AcDbEntity
  8
FORMAT
 62
     0
100
AcDbLine
 10
0.0
 20
0.0
 30
0.0
 11
2.5
 21
0.0
 31
0.0
  0
LINE
  5
C8
330
C1
100
AcDbEntity
  8
FORMAT
 62
     0
100
AcDbLine
 10
0.0
 20
5.0
 30
0.0
 11
0.0
 21
43.0
 31
0.0
  0
LINE
  5
C9
330
C1
100
AcDbEntity
  8
FORMAT
 62
     0
100
AcDbLine
 10
-5.0
 20
0.0
 30
0.0
 11
-43.0
 21
0.0
 31
0.0
  0
LINE
  5
CA
330
C1
100
AcDbEntity
  8
FORMAT
 62
     0
100
AcDbLine
 10
0.0
 20
-5.0
 30
0.0
 11
0.0
 21
-43.0
 31
0.0
  0
LINE
  5
CB
330
C1
100
AcDbEntity
  8
FORMAT
 62
     0
100
AcDbLine
 10
5.0
 20
0.0
 30
0.0
 11
43.0
 21
0.0
 31
0.0
  0
ENDBLK
  5
C3
330
C1
100
AcDbEntity
  8
0
100
AcDbBlockEnd
  0
BLOCK
  5
DF
330
DE
100
AcDbEntity
  8
0
100
AcDbBlockBegin
  2
SW_CENTERMARKSYMBOL_2
 70
     0
 10
0.0
 20
0.0
 30
0.0
  3
SW_CENTERMARKSYMBOL_2
  1

  0
LINE
  5
E1
330
DE
100
AcDbEntity
  8
FORMAT
 62
     0
100
AcDbLine
 10
0.0
 20
0.0
 30
0.0
 11
0.0
 21
2.5
 31
0.0
  0
LINE
  5
E2
330
DE
100
AcDbEntity
  8
FORMAT
 62
     0
100
AcDbLine
 10
0.0
 20
0.0
 30
0.0
 11
-2.5
 21
0.0
 31
0.0
  0
LINE
  5
E3
330
DE
100
AcDbEntity
  8
FORMAT
 62
     0
100
AcDbLine
 10
0.0
 20
0.0
 30
0.0
 11
0.0
 21
-2.5
 31
0.0
  0
LINE
  5
E4
330
DE
100
AcDbEntity
  8
FORMAT
 62
     0
100
AcDbLine
 10
0.0
 20
0.0
 30
0.0
 11
2.5
 21
0.0
 31
0.0
  0
LINE
  5
E5
330
DE
100
AcDbEntity
  8
FORMAT
 62
     0
100
AcDbLine
 10
0.0
 20
5.0
 30
0.0
 11
0.0
 21
43.0
 31
0.0
  0
LINE
  5
E6
330
DE
100
AcDbEntity
  8
FORMAT
 62
     0
100
AcDbLine
 10
-5.0
 20
0.0
 30
0.0
 11
-43.0
 21
0.0
 31
0.0
  0
LINE
  5
E7
330
DE
100
AcDbEntity
  8
FORMAT
 62
     0
100
AcDbLine
 10
0.0
 20
-5.0
 30
0.0
 11
0.0
 21
-43.0
 31
0.0
  0
LINE
  5
E8
330
DE
100
AcDbEntity
  8
FORMAT
 62
     0
100
AcDbLine
 10
5.0
 20
0.0
 30
0.0
 11
43.0
 21
0.0
 31
0.0
  0
ENDBLK
  5
E0
330
DE
100
AcDbEntity
  8
0
100
AcDbBlockEnd
  0
BLOCK
  5
FA
330
F9
100
AcDbEntity
  8
0
100
AcDbBlockBegin
  2
SW_CENTERMARKSYMBOL_3
 70
     0
 10
0.0
 20
0.0
 30
0.0
  3
SW_CENTERMARKSYMBOL_3
  1

  0
LINE
  5
FC
330
F9
100
AcDbEntity
  8
FORMAT
 62
     0
100
AcDbLine
 10
0.0
 20
0.0
 30
0.0
 11
0.0
 21
2.5
 31
0.0
  0
LINE
  5
FD
330
F9
100
AcDbEntity
  8
FORMAT
 62
     0
100
AcDbLine
 10
0.0
 20
0.0
 30
0.0
 11
-2.5
 21
0.0
 31
0.0
  0
LINE
  5
FE
330
F9
100
AcDbEntity
  8
FORMAT
 62
     0
100
AcDbLine
 10
0.0
 20
0.0
 30
0.0
 11
0.0
 21
-2.5
 31
0.0
  0
LINE
  5
FF
330
F9
100
AcDbEntity
  8
FORMAT
 62
     0
100
AcDbLine
 10
0.0
 20
0.0
 30
0.0
 11
2.5
 21
0.0
 31
0.0
  0
LINE
  5
100
330
F9
100
AcDbEntity
  8
FORMAT
 62
     0
100
AcDbLine
 10
0.0
 20
5.0
 30
0.0
 11
0.0
 21
43.0
 31
0.0
  0
LINE
  5
101
330
F9
100
AcDbEntity
  8
FORMAT
 62
     0
100
AcDbLine
 10
-5.0
 20
0.0
 30
0.0
 11
-43.0
 21
0.0
 31
0.0
  0
LINE
  5
102
330
F9
100
AcDbEntity
  8
FORMAT
 62
     0
100
AcDbLine
 10
0.0
 20
-5.0
 30
0.0
 11
0.0
 21
-43.0
 31
0.0
  0
LINE
  5
103
330
F9
100
AcDbEntity
  8
FORMAT
 62
     0
100
AcDbLine
 10
5.0
 20
0.0
 30
0.0
 11
43.0
 21
0.0
 31
0.0
  0
ENDBLK
  5
FB
330
F9
100
AcDbEntity
  8
0
100
AcDbBlockEnd
  0
ENDSEC
  0
SECTION
  2
ENTITIES
  0
LINE
  5
83
330
1F
100
AcDbEntity
  8
0
  6
Continuous
 62
     7
370
    25
100
AcDbLine
 10
77.8940644889
 20
87.8774669629
 30
0.0
 11
77.8940644889
 21
44.8774669629
 31
0.0
  0
LINE
  5
84
330
1F
100
AcDbEntity
  8
0
  6
Continuous
 62
     7
370
    25
100
AcDbLine
 10
158.8940644889
 20
44.8774669629
 30
0.0
 11
158.8940644889
 21
87.8774669629
 31
0.0
  0
ARC
  5
85
330
1F
100
AcDbEntity
  8
0
  6
Continuous
 62
     7
370
    25
100
AcDbCircle
 10
159.3940644889
 20
87.8774669629
 30
0.0
 40
0.5
100
AcDbArc
 50
90.0
 51
180.0
  0
ARC
  5
86
330
1F
100
AcDbEntity
  8
0
  6
Continuous
 62
     7
370
    25
100
AcDbCircle
 10
159.3940644889
 20
87.8774669629
 30
0.0
 40
81.5
100
AcDbArc
 50
90.0
 51
180.0
  0
LINE
  5
87
330
1F
100
AcDbEntity
  8
0
  6
Continuous
 62
     7
370
    25
100
AcDbLine
 10
202.3940644889
 20
169.3774669629
 30
0.0
 11
159.3940644889
 21
169.3774669629
 31
0.0
  0
LINE
  5
88
330
1F
100
AcDbEntity
  8
0
  6
Continuous
 62
     7
370
    25
100
AcDbLine
 10
159.3940644889
 20
88.3774669629
 30
0.0
 11
202.3940644889
 21
88.3774669629
 31
0.0
  0
CIRCLE
  5
89
330
1F
100
AcDbEntity
  8
0
  6
Continuous
 62
     7
370
    25
100
AcDbCircle
 10
118.3940644889
 20
54.8774669629
 30
0.0
 40
5.0
  0
CIRCLE
  5
8A
330
1F
100
AcDbEntity
  8
0
  6
Continuous
 62
     7
370
    25
100
AcDbCircle
 10
118.3940644889
 20
54.8774669629
 30
0.0
 40
7.0
  0
CIRCLE
  5
8B
330
1F
100
AcDbEntity
  8
0
  6
Continuous
 62
     7
370
    25
100
AcDbCircle
 10
192.3940644889
 20
128.8774669629
 30
0.0
 40
7.0
  0
CIRCLE
  5
8C
330
1F
100
AcDbEntity
  8
0
  6
Continuous
 62
     7
370
    25
100
AcDbCircle
 10
192.3940644889
 20
128.8774669629
 30
0.0
 40
4.999999999999972
  0
LINE
  5
8D
330
1F
100
AcDbEntity
  8
0
  6
Continuous
 62
     7
370
    25
100
AcDbLine
 10
118.3940644889
 20
44.8774669629
 30
0.0
 11
158.8940644889
 21
44.8774669629
 31
0.0
  0
LINE
  5
8E
330
1F
100
AcDbEntity
  8
0
  6
Continuous
 62
     7
370
    25
100
AcDbLine
 10
77.8940644889
 20
44.8774669629
 30
0.0
 11
118.3940644889
 21
44.8774669629
 31
0.0
  0
LINE
  5
8F
330
1F
100
AcDbEntity
  8
0
  6
Continuous
 62
     7
370
    25
100
AcDbLine
 10
202.3940644889
 20
128.8774669629
 30
0.0
 11
202.3940644889
 21
88.3774669629
 31
0.0
  0
LINE
  5
90
330
1F
100
AcDbEntity
  8
0
  6
Continuous
 62
     7
370
    25
100
AcDbLine
 10
202.3940644889
 20
169.3774669629
 30
0.0
 11
202.3940644889
 21
128.8774669629
 31
0.0
  0
LINE
  5
91
330
1F
100
AcDbEntity
  8
0
  6
Continuous
 62
     1
370
    25
100
AcDbLine
 10
118.3940644889
 20
87.8774669629
 30
0.0
 11
158.8940644889
 21
87.8774669629
 31
0.0
  0
LINE
  5
92
330
1F
100
AcDbEntity
  8
0
  6
Continuous
 62
     1
370
    25
100
AcDbLine
 10
77.8940644889
 20
87.8774669629
 30
0.0
 11
118.3940644889
 21
87.8774669629
 31
0.0
  0
LINE
  5
93
330
1F
100
AcDbEntity
  8
0
  6
Continuous
 62
     1
370
    25
100
AcDbLine
 10
159.3940644889
 20
128.8774669629
 30
0.0
 11
159.3940644889
 21
88.3774669629
 31
0.0
  0
LINE
  5
94
330
1F
100
AcDbEntity
  8
0
  6
Continuous
 62
     1
370
    25
100
AcDbLine
 10
159.3940644889
 20
169.3774669629
 30
0.0
 11
159.3940644889
 21
128.8774669629
 31
0.0
  0
LINE
  5
95
330
1F
100
AcDbEntity
  8
0
  6
Continuous
 62
     7
370
    25
100
AcDbLine
 10
-93.7505472748
 20
135.8774669629
 30
0.0
 11
-109.3588757948
 21
135.8774669629
 31
0.0
  0
LINE
  5
96
330
1F
100
AcDbEntity
  8
0
  6
Continuous
 62
     7
370
    25
100
AcDbLine
 10
-109.3588757948
 20
121.8774669629
 30
0.0
 11
-93.7534644634
 21
121.8774669629
 31
0.0
  0
LINE
  5
97
330
1F
100
AcDbEntity
  8
0
  6
Continuous
 62
     7
370
    25
100
AcDbLine
 10
-94.3588757948
 20
121.8774669629
 30
0.0
 11
-94.3588757948
 21
87.8774669629
 31
0.0
  0
LINE
  5
98
330
1F
100
AcDbEntity
  8
0
  6
Continuous
 62
     7
370
    25
100
AcDbLine
 10
-13.3588757948
 20
87.8774669629
 30
0.0
 11
-13.3588757948
 21
128.8774669629
 31
0.0
  0
LINE
  5
99
330
1F
100
AcDbEntity
  8
0
  6
Continuous
 62
     7
370
    25
100
AcDbLine
 10
-94.3588757948
 20
47.8774669629
 30
0.0
 11
-94.3588757948
 21
44.8774669629
 31
0.0
  0
LINE
  5
9A
330
1F
100
AcDbEntity
  8
0
  6
Continuous
 62
     7
370
    25
100
AcDbLine
 10
-94.3588757948
 20
87.8774669629
 30
0.0
 11
-94.3588757948
 21
61.8585238845
 31
0.0
  0
LINE
  5
9B
330
1F
100
AcDbEntity
  8
0
  6
Continuous
 62
     7
370
    25
100
AcDbLine
 10
-13.3588757948
 20
44.8774669629
 30
0.0
 11
-13.3588757948
 21
87.8774669629
 31
0.0
  0
LINE
  5
9C
330
1F
100
AcDbEntity
  8
0
  6
Continuous
 62
     7
370
    25
100
AcDbLine
 10
-94.3556148039
 20
61.8774669629
 30
0.0
 11
-109.3588757948
 21
61.8774669629
 31
0.0
  0
LINE
  5
9D
330
1F
100
AcDbEntity
  8
0
  6
Continuous
 62
     7
370
    25
100
AcDbLine
 10
-109.3588757948
 20
47.8774669629
 30
0.0
 11
-94.3588757948
 21
47.8774669629
 31
0.0
  0
CIRCLE
  5
9E
330
1F
100
AcDbEntity
  8
0
  6
Continuous
 62
     7
370
    25
100
AcDbCircle
 10
-53.8588757948
 20
128.8774669629
 30
0.0
 40
40.49999999999999
  0
CIRCLE
  5
9F
330
1F
100
AcDbEntity
  8
0
  6
Continuous
 62
     7
370
    25
100
AcDbCircle
 10
-53.8588757948
 20
128.8774669629
 30
0.0
 40
31.49999999999999
  0
LINE
  5
A0
330
1F
100
AcDbEntity
  8
0
  6
Continuous
 62
     7
370
    25
100
AcDbLine
 10
-109.3588757948
 20
135.8774669629
 30
0.0
 11
-109.3588757948
 21
121.8774669629
 31
0.0
  0
SPLINE
  5
A1
330
1F
100
AcDbEntity
  8
0
  6
Continuous
 62
     7
370
    25
100
AcDbSpline
210
0.0
220
0.0
230
1.0
 70
     8
 71
     3
 72
    26
 73
    22
 74
     0
 42
0.00000001
 43
0.00000001
 40
0.0
 40
0.0
 40
0.0
 40
0.0
 40
0.0523879228776413
 40
0.1063087879191595
 40
0.1586928775288469
 40
0.2125702860687108
 40
0.2654315217154884
 40
0.3198047035421256
 40
0.372992487633259
 40
0.4277518604593527
 40
0.4804074731400385
 40
0.5346247276781725
 40
0.5867176486682925
 40
0.640307481310251
 40
0.6926842092473683
 40
0.7465407252450501
 40
0.7996015241503581
 40
0.8541967410740198
 40
0.9072845909769051
 40
0.9619502266118896
 40
1.0
 40
1.0
 40
1.0
 40
1.0
 10
-94.35887579484681
 20
47.87746696286934
 30
0.0
 10
-94.35567640125817
 20
47.89585809487499
 30
0.0
 10
-94.34918399545539
 20
47.93317850852355
 30
0.0
 10
-94.29831358685935
 20
48.23318306596676
 30
0.0
 10
-94.22252388997964
 20
48.70707748408084
 30
0.0
 10
-94.12806097730902
 20
49.35203194081606
 30
0.0
 10
-94.02436338677548
 20
50.1587002881331
 30
0.0
 10
-93.92410812743809
 20
51.09545182665673
 30
0.0
 10
-93.83735376285729
 20
52.15192899281306
 30
0.0
 10
-93.77586506738142
 20
53.27679022194459
 30
0.0
 10
-93.74576140513035
 20
54.45512061463073
 30
0.0
 10
-93.75067573231985
 20
55.62680678707255
 30
0.0
 10
-93.78956543503155
 20
56.78300183736061
 30
0.0
 10
-93.85701718955514
 20
57.87274185081064
 30
0.0
 10
-93.94680013661797
 20
58.88963896236147
 30
0.0
 10
-94.04804510522436
 20
59.79181462911093
 30
0.0
 10
-94.15109085984255
 20
60.5671099480137
 30
0.0
 10
-94.24315667687051
 20
61.18038157210204
 30
0.0
 10
-94.31348583564721
 20
61.61272599144417
 30
0.0
 10
-94.35426915303302
 20
61.85091593825673
 30
0.0
 10
-94.35522012564915
 20
61.85631014054332
 30
0.0
 10
-94.35561039834408
 20
61.85852388448057
 30
0.0
  0
LINE
  5
A2
330
1F
100
AcDbEntity
  8
0
  6
Continuous
 62
     7
370
    25
100
AcDbLine
 10
-94.3588757948
 20
44.8774669629
 30
0.0
 11
-13.3588757948
 21
44.8774669629
 31
0.0
  0
LINE
  5
A3
330
1F
100
AcDbEntity
  8
0
  6
Continuous
 62
     7
370
    25
100
AcDbLine
 10
-109.3588757948
 20
61.8774669629
 30
0.0
 11
-109.3588757948
 21
47.8774669629
 31
0.0
  0
LINE
  5
A4
330
1F
100
AcDbEntity
  8
0
  6
Continuous
 62
     1
370
    25
100
AcDbLine
 10
-94.3588757948
 20
87.8774669629
 30
0.0
 11
-13.3588757948
 21
87.8774669629
 31
0.0
  0
INSERT
  5
B0
330
1F
100
AcDbEntity
  8
FORMAT
 62
     7
100
AcDbBlockReference
  2
SW_CENTERMARKSYMBOL_0
 10
-53.8588757948
 20
128.8774669629
 30
0.0
  0
LINE
  5
B1
330
1F
100
AcDbEntity
  8
0
  6
Continuous
 62
     7
370
    25
100
AcDbLine
 10
125.3940644889
 20
342.2224386622
 30
0.0
 11
125.3940644889
 21
357.8278499936
 31
0.0
  0
LINE
  5
B2
330
1F
100
AcDbEntity
  8
0
  6
Continuous
 62
     7
370
    25
100
AcDbLine
 10
111.3940644889
 20
357.8278499936
 30
0.0
 11
111.3940644889
 21
342.2195214736
 31
0.0
  0
LINE
  5
B3
330
1F
100
AcDbEntity
  8
0
  6
Continuous
 62
     7
370
    25
100
AcDbLine
 10
159.3940644889
 20
342.8278499936
 30
0.0
 11
125.3940644889
 21
342.8278499936
 31
0.0
  0
LINE
  5
B4
330
1F
100
AcDbEntity
  8
0
  6
Continuous
 62
     7
370
    25
100
AcDbLine
 10
118.3940644889
 20
261.8278499936
 30
0.0
 11
159.3940644889
 21
261.8278499936
 31
0.0
  0
LINE
  5
B5
330
1F
100
AcDbEntity
  8
0
  6
Continuous
 62
     7
370
    25
100
AcDbLine
 10
185.3940644889
 20
342.8278499936
 30
0.0
 11
159.3940644889
 21
342.8278499936
 31
0.0
  0
LINE
  5
B6
330
1F
100
AcDbEntity
  8
0
  6
Continuous
 62
     7
370
    25
100
AcDbLine
 10
202.3940644889
 20
342.8278499936
 30
0.0
 11
199.3751214105
 21
342.8278499936
 31
0.0
  0
LINE
  5
B7
330
1F
100
AcDbEntity
  8
0
  6
Continuous
 62
     7
370
    25
100
AcDbLine
 10
159.3940644889
 20
261.8278499936
 30
0.0
 11
202.3940644889
 21
261.8278499936
 31
0.0
  0
LINE
  5
B8
330
1F
100
AcDbEntity
  8
0
  6
Continuous
 62
     7
370
    25
100
AcDbLine
 10
199.3940644889
 20
342.8245890027
 30
0.0
 11
199.3940644889
 21
357.8278499936
 31
0.0
  0
LINE
  5
B9
330
1F
100
AcDbEntity
  8
0
  6
Continuous
 62
     7
370
    25
100
AcDbLine
 10
185.3940644889
 20
357.8278499936
 30
0.0
 11
185.3940644889
 21
342.8278499936
 31
0.0
  0
CIRCLE
  5
BA
330
1F
100
AcDbEntity
  8
0
  6
Continuous
 62
     7
370
    25
100
AcDbCircle
 10
118.3940644889
 20
302.3278499936
 30
0.0
 40
31.5
  0
CIRCLE
  5
BB
330
1F
100
AcDbEntity
  8
0
  6
Continuous
 62
     7
370
    25
100
AcDbCircle
 10
118.3940644889
 20
302.3278499936
 30
0.0
 40
40.50000000000006
  0
LINE
  5
BC
330
1F
100
AcDbEntity
  8
0
  6
Continuous
 62
     7
370
    25
100
AcDbLine
 10
125.3940644889
 20
357.8278499936
 30
0.0
 11
111.3940644889
 21
357.8278499936
 31
0.0
  0
SPLINE
  5
BD
330
1F
100
AcDbEntity
  8
0
  6
Continuous
 62
     7
370
    25
100
AcDbSpline
210
0.0
220
0.0
230
1.0
 70
     8
 71
     3
 72
    26
 73
    22
 74
     0
 42
0.00000001
 43
0.00000001
 40
0.0
 40
0.0
 40
0.0
 40
0.0
 40
0.0523879228776413
 40
0.1063087879191597
 40
0.1586928775288473
 40
0.2125702860687108
 40
0.2654315217154887
 40
0.3198047035421261
 40
0.3729924876332587
 40
0.4277518604593524
 40
0.4804074731400383
 40
0.5346247276781726
 40
0.5867176486682921
 40
0.6403074813102508
 40
0.6926842092473686
 40
0.7465407252450503
 40
0.7996015241503585
 40
0.85419674107402
 40
0.9072845909769057
 40
0.9619502266118908
 40
0.9999999999999999
 40
0.9999999999999999
 40
0.9999999999999999
 40
0.9999999999999999
 10
185.3940644889277
 20
342.8278499935981
 30
0.0
 10
185.4124556209333
 20
342.8246506000094
 30
0.0
 10
185.4497760345819
 20
342.8181581942066
 30
0.0
 10
185.7497805920251
 20
342.7672877856106
 30
0.0
 10
186.2236750101391
 20
342.6914980887308
 30
0.0
 10
186.8686294668744
 20
342.5970351760603
 30
0.0
 10
187.6752978141915
 20
342.4933375855267
 30
0.0
 10
188.6120493527151
 20
342.3930823261893
 30
0.0
 10
189.6685265188714
 20
342.3063279616085
 30
0.0
 10
190.7933877480029
 20
342.2448392661327
 30
0.0
 10
191.9717181406891
 20
342.2147356038816
 30
0.0
 10
193.1434043131309
 20
342.219649931071
 30
0.0
 10
194.299599363419
 20
342.2585396337828
 30
0.0
 10
195.389339376869
 20
342.3259913883063
 30
0.0
 10
196.4062364884198
 20
342.4157743353692
 30
0.0
 10
197.3084121551693
 20
342.5170193039756
 30
0.0
 10
198.0837074740721
 20
342.6200650585938
 30
0.0
 10
198.6969790981604
 20
342.7121308756218
 30
0.0
 10
199.1293235175026
 20
342.7824600343984
 30
0.0
 10
199.3675134643151
 20
342.8232433517842
 30
0.0
 10
199.3729076666017
 20
342.8241943244004
 30
0.0
 10
199.375121410539
 20
342.8245845970953
 30
0.0
  0
LINE
  5
BE
330
1F
100
AcDbEntity
  8
0
  6
Continuous
 62
     7
370
    25
100
AcDbLine
 10
202.3940644889
 20
342.8278499936
 30
0.0
 11
202.3940644889
 21
261.8278499936
 31
0.0
  0
LINE
  5
BF
330
1F
100
AcDbEntity
  8
0
  6
Continuous
 62
     7
370
    25
100
AcDbLine
 10
199.3940644889
 20
357.8278499936
 30
0.0
 11
185.3940644889
 21
357.8278499936
 31
0.0
  0
LINE
  5
C0
330
1F
100
AcDbEntity
  8
0
  6
Continuous
 62
     1
370
    25
100
AcDbLine
 10
159.3940644889
 20
342.8278499936
 30
0.0
 11
159.3940644889
 21
261.8278499936
 31
0.0
  0
INSERT
  5
CC
330
1F
100
AcDbEntity
  8
FORMAT
 62
     7
100
AcDbBlockReference
  2
SW_CENTERMARKSYMBOL_1
 10
118.3940644889
 20
302.3278499936
 30
0.0
  0
LINE
  5
CD
330
1F
100
AcDbEntity
  8
0
  6
Continuous
 62
     7
370
    25
100
AcDbLine
 10
281.8773194597
 20
87.8774669629
 30
0.0
 11
281.8773194597
 21
44.8774669629
 31
0.0
  0
LINE
  5
CE
330
1F
100
AcDbEntity
  8
0
  6
Continuous
 62
     7
370
    25
100
AcDbLine
 10
362.8773194597
 20
61.8585238845
 30
0.0
 11
362.8773194597
 21
87.8774669629
 31
0.0
  0
LINE
  5
CF
330
1F
100
AcDbEntity
  8
0
  6
Continuous
 62
     7
370
    25
100
AcDbLine
 10
362.8773194597
 20
44.8774669629
 30
0.0
 11
362.8773194597
 21
47.8774669629
 31
0.0
  0
LINE
  5
D0
330
1F
100
AcDbEntity
  8
0
  6
Continuous
 62
     7
370
    25
100
AcDbLine
 10
362.8773194597
 20
87.8774669629
 30
0.0
 11
362.8773194597
 21
128.8774669629
 31
0.0
  0
LINE
  5
D1
330
1F
100
AcDbEntity
  8
0
  6
Continuous
 62
     7
370
    25
100
AcDbLine
 10
281.8773194597
 20
128.8774669629
 30
0.0
 11
281.8773194597
 21
87.8774669629
 31
0.0
  0
LINE
  5
D2
330
1F
100
AcDbEntity
  8
0
  6
Continuous
 62
     7
370
    25
100
AcDbLine
 10
362.8773194597
 20
47.8774669629
 30
0.0
 11
377.8773194597
 21
47.8774669629
 31
0.0
  0
LINE
  5
D3
330
1F
100
AcDbEntity
  8
0
  6
Continuous
 62
     7
370
    25
100
AcDbLine
 10
377.8773194597
 20
61.8774669629
 30
0.0
 11
362.8740584687
 21
61.8774669629
 31
0.0
  0
LINE
  5
D4
330
1F
100
AcDbEntity
  8
0
  6
Continuous
 62
     7
370
    25
100
AcDbLine
 10
362.8773194597
 20
121.8774669629
 30
0.0
 11
377.8773194597
 21
121.8774669629
 31
0.0
  0
LINE
  5
D5
330
1F
100
AcDbEntity
  8
0
  6
Continuous
 62
     7
370
    25
100
AcDbLine
 10
377.8773194597
 20
135.8774669629
 30
0.0
 11
362.2689909397
 21
135.8774669629
 31
0.0
  0
LINE
  5
D6
330
1F
100
AcDbEntity
  8
0
  6
Continuous
 62
     7
370
    25
100
AcDbLine
 10
281.8773194597
 20
44.8774669629
 30
0.0
 11
362.8773194597
 21
44.8774669629
 31
0.0
  0
SPLINE
  5
D7
330
1F
100
AcDbEntity
  8
0
  6
Continuous
 62
     7
370
    25
100
AcDbSpline
210
0.0
220
0.0
230
1.0
 70
     8
 71
     3
 72
    26
 73
    22
 74
     0
 42
0.00000001
 43
0.00000001
 40
0.0
 40
0.0
 40
0.0
 40
0.0
 40
0.0143745244001742
 40
0.0683423361419513
 40
0.1204498289944819
 40
0.174041840703455
 40
0.2266482125557159
 40
0.2807466044248635
 40
0.3339198460136577
 40
0.3886469561998392
 40
0.4415689532139519
 40
0.4960669986339997
 40
0.5482926360125766
 40
0.6020383029690157
 40
0.654215942712823
 40
0.7078698908560938
 40
0.7607130316299834
 40
0.8150662600515203
 40
0.868260202630669
 40
0.9230243689118968
 40
1.0
 40
1.0
 40
1.0
 40
1.0
 10
362.8740540631762
 20
61.85852388448056
 30
0.0
 10
362.8750138794517
 20
61.86409266314977
 30
0.0
 10
362.8795772364513
 20
61.89056890216232
 30
0.0
 10
362.8538495905203
 20
61.74185543831324
 30
0.0
 10
362.7983825672869
 20
61.40960270148736
 30
0.0
 10
362.7163667777616
 20
60.88659870680011
 30
0.0
 10
362.6182030026456
 20
60.19442602955295
 30
0.0
 10
362.5148601992581
 20
59.35473082268503
 30
0.0
 10
362.4166050532381
 20
58.37685532130813
 30
0.0
 10
362.3363960063531
 20
57.30489270220446
 30
0.0
 10
362.2825089733491
 20
56.15364846964849
 30
0.0
 10
362.2621005083383
 20
54.98249392745184
 30
0.0
 10
362.2766539138126
 20
53.80302736238767
 30
0.0
 10
362.3236655066671
 20
52.6706019723567
 30
0.0
 10
362.3985142737232
 20
51.59120829016532
 30
0.0
 10
362.4919533797965
 20
50.60907066158212
 30
0.0
 10
362.5953438937728
 20
49.73420912369543
 30
0.0
 10
362.6961139246184
 20
49.00464087733413
 30
0.0
 10
362.7832187395468
 20
48.43819475864231
 30
0.0
 10
362.8587668012962
 20
47.9831847309682
 30
0.0
 10
362.8704771165041
 20
47.91645637528019
 30
0.0
 10
362.8773194596789
 20
47.87746696286933
 30
0.0
  0
ARC
  5
D8
330
1F
100
AcDbEntity
  8
0
  6
Continuous
 62
     7
370
    25
100
AcDbCircle
 10
322.3773194597
 20
128.8774669629
 30
0.0
 40
40.49999999999994
100
AcDbArc
 50
0.0
 51
180.0
  0
LINE
  5
D9
330
1F
100
AcDbEntity
  8
0
  6
Continuous
 62
     7
370
    25
100
AcDbLine
 10
377.8773194597
 20
54.8774669629
 30
0.0
 11
377.8773194597
 21
61.8774669629
 31
0.0
  0
LINE
  5
DA
330
1F
100
AcDbEntity
  8
0
  6
Continuous
 62
     7
370
    25
100
AcDbLine
 10
377.8773194597
 20
47.8774669629
 30
0.0
 11
377.8773194597
 21
54.8774669629
 31
0.0
  0
LINE
  5
DB
330
1F
100
AcDbEntity
  8
0
  6
Continuous
 62
     7
370
    25
100
AcDbLine
 10
377.8773194597
 20
128.8774669629
 30
0.0
 11
377.8773194597
 21
135.8774669629
 31
0.0
  0
LINE
  5
DC
330
1F
100
AcDbEntity
  8
0
  6
Continuous
 62
     7
370
    25
100
AcDbLine
 10
377.8773194597
 20
121.8774669629
 30
0.0
 11
377.8773194597
 21
128.8774669629
 31
0.0
  0
LINE
  5
DD
330
1F
100
AcDbEntity
  8
0
  6
Continuous
 62
     1
370
    25
100
AcDbLine
 10
281.8773194597
 20
87.8774669629
 30
0.0
 11
362.8773194597
 21
87.8774669629
 31
0.0
  0
INSERT
  5
E9
330
1F
100
AcDbEntity
  8
FORMAT
 62
     7
100
AcDbBlockReference
  2
SW_CENTERMARKSYMBOL_2
 10
322.3773194597
 20
128.8774669629
 30
0.0
  0
LINE
  5
EA
330
1F
100
AcDbEntity
  8
0
  6
Continuous
 62
     7
370
    25
100
AcDbLine
 10
118.3940644889
 20
-117.1822113749
 30
0.0
 11
159.3940644889
 21
-117.1822113749
 31
0.0
  0
LINE
  5
EB
330
1F
100
AcDbEntity
  8
0
  6
Continuous
 62
     7
370
    25
100
AcDbLine
 10
159.3940644889
 20
-36.1822113749
 30
0.0
 11
118.3940644889
 21
-36.1822113749
 31
0.0
  0
LINE
  5
EC
330
1F
100
AcDbEntity
  8
0
  6
Continuous
 62
     7
370
    25
100
AcDbLine
 10
202.3940644889
 20
-36.1822113749
 30
0.0
 11
159.3940644889
 21
-36.1822113749
 31
0.0
  0
LINE
  5
ED
330
1F
100
AcDbEntity
  8
0
  6
Continuous
 62
     7
370
    25
100
AcDbLine
 10
199.3751214105
 20
-117.1822113749
 30
0.0
 11
202.3940644889
 21
-117.1822113749
 31
0.0
  0
LINE
  5
EE
330
1F
100
AcDbEntity
  8
0
  6
Continuous
 62
     7
370
    25
100
AcDbLine
 10
159.3940644889
 20
-117.1822113749
 30
0.0
 11
185.3940644889
 21
-117.1822113749
 31
0.0
  0
LINE
  5
EF
330
1F
100
AcDbEntity
  8
0
  6
Continuous
 62
     7
370
    25
100
AcDbLine
 10
185.3940644889
 20
-117.1822113749
 30
0.0
 11
185.3940644889
 21
-132.1822113749
 31
0.0
  0
LINE
  5
F0
330
1F
100
AcDbEntity
  8
0
  6
Continuous
 62
     7
370
    25
100
AcDbLine
 10
199.3940644889
 20
-132.1822113749
 30
0.0
 11
199.3940644889
 21
-117.178950384
 31
0.0
  0
LINE
  5
F1
330
1F
100
AcDbEntity
  8
0
  6
Continuous
 62
     7
370
    25
100
AcDbLine
 10
111.3940644889
 20
-116.5738828549
 30
0.0
 11
111.3940644889
 21
-132.1822113749
 31
0.0
  0
LINE
  5
F2
330
1F
100
AcDbEntity
  8
0
  6
Continuous
 62
     7
370
    25
100
AcDbLine
 10
125.3940644889
 20
-132.1822113749
 30
0.0
 11
125.3940644889
 21
-117.1822113749
 31
0.0
  0
ARC
  5
F3
330
1F
100
AcDbEntity
  8
0
  6
Continuous
 62
     7
370
    25
100
AcDbCircle
 10
118.3940644889
 20
-76.6822113749
 30
0.0
 40
40.49999999999999
100
AcDbArc
 50
90.0
 51
270.0
  0
SPLINE
  5
F4
330
1F
100
AcDbEntity
  8
0
  6
Continuous
 62
     7
370
    25
100
AcDbSpline
210
0.0
220
0.0
230
1.0
 70
     8
 71
     3
 72
    26
 73
    22
 74
     0
 42
0.00000001
 43
0.00000001
 40
0.0
 40
0.0
 40
0.0
 40
0.0
 40
0.0143745244001756
 40
0.0683423361419518
 40
0.1204498289944826
 40
0.1740418407034555
 40
0.2266482125557158
 40
0.2807466044248635
 40
0.333919846013658
 40
0.3886469561998399
 40
0.4415689532139528
 40
0.4960669986340007
 40
0.5482926360125768
 40
0.6020383029690161
 40
0.6542159427128237
 40
0.7078698908560946
 40
0.7607130316299847
 40
0.8150662600515205
 40
0.8682602026306693
 40
0.9230243689118968
 40
1.0
 40
1.0
 40
1.0
 40
1.0
 10
199.375121410539
 20
-117.1789459783935
 30
0.0
 10
199.3806901892081
 20
-117.1799057946691
 30
0.0
 10
199.4071664282207
 20
-117.1844691516687
 30
0.0
 10
199.2584529643716
 20
-117.1587415057377
 30
0.0
 10
198.9262002275457
 20
-117.1032744825043
 30
0.0
 10
198.4031962328585
 20
-117.0212586929789
 30
0.0
 10
197.7110235556113
 20
-116.923094917863
 30
0.0
 10
196.8713283487434
 20
-116.8197521144755
 30
0.0
 10
195.8934528473665
 20
-116.7214969684555
 30
0.0
 10
194.8214902282628
 20
-116.6412879215705
 30
0.0
 10
193.6702459957069
 20
-116.5874008885665
 30
0.0
 10
192.4990914535102
 20
-116.5669924235558
 30
0.0
 10
191.319624888446
 20
-116.5815458290299
 30
0.0
 10
190.1871994984151
 20
-116.6285574218846
 30
0.0
 10
189.1078058162237
 20
-116.7034061889406
 30
0.0
 10
188.1256681876404
 20
-116.796845295014
 30
0.0
 10
187.2508066497538
 20
-116.9002358089902
 30
0.0
 10
186.5212384033925
 20
-117.0010058398358
 30
0.0
 10
185.9547922847007
 20
-117.0881106547641
 30
0.0
 10
185.4997822570266
 20
-117.1636587165136
 30
0.0
 10
185.4330539013386
 20
-117.1753690317215
 30
0.0
 10
185.3940644889277
 20
-117.1822113748963
 30
0.0
  0
LINE
  5
F5
330
1F
100
AcDbEntity
  8
0
  6
Continuous
 62
     7
370
    25
100
AcDbLine
 10
202.3940644889
 20
-36.1822113749
 30
0.0
 11
202.3940644889
 21
-117.1822113749
 31
0.0
  0
LINE
  5
F6
330
1F
100
AcDbEntity
  8
0
  6
Continuous
 62
     7
370
    25
100
AcDbLine
 10
185.3940644889
 20
-132.1822113749
 30
0.0
 11
199.3940644889
 21
-132.1822113749
 31
0.0
  0
LINE
  5
F7
330
1F
100
AcDbEntity
  8
0
  6
Continuous
 62
     7
370
    25
100
AcDbLine
 10
111.3940644889
 20
-132.1822113749
 30
0.0
 11
125.3940644889
 21
-132.1822113749
 31
0.0
  0
LINE
  5
F8
330
1F
100
AcDbEntity
  8
0
  6
Continuous
 62
     1
370
    25
100
AcDbLine
 10
159.3940644889
 20
-36.1822113749
 30
0.0
 11
159.3940644889
 21
-117.1822113749
 31
0.0
  0
INSERT
  5
104
330
1F
100
AcDbEntity
  8
FORMAT
 62
     7
100
AcDbBlockReference
  2
SW_CENTERMARKSYMBOL_3
 10
118.3940644889
 20
-76.6822113749
 30
0.0
  0
LINE
  5
105
330
1F
100
AcDbEntity
  8
0
  6
Continuous
 62
     7
370
    25
100
AcDbLine
 10
344.2381020255
 20
6.2670318315
 30
0.0
 11
323.9126658716
 21
-5.466592703
 31
0.0
  0
LINE
  5
106
330
1F
100
AcDbEntity
  8
0
  6
Continuous
 62
     7
370
    25
100
AcDbLine
 10
354.3292191063
 20
-81.4357004255
 30
0.0
 11
384.7348106973
 21
-63.8829260213
 31
0.0
  0
LINE
  5
107
330
1F
100
AcDbEntity
  8
0
  6
Continuous
 62
     7
370
    25
100
AcDbLine
 10
264.5894867417
 20
-108.2236403592
 30
0.0
 11
264.5894867417
 21
-131.6865159899
 31
0.0
  0
LINE
  5
108
330
1F
100
AcDbEntity
  8
0
  6
Continuous
 62
     7
370
    25
100
AcDbLine
 10
345.5894867417
 20
-131.6865159899
 30
0.0
 11
345.5894867417
 21
-96.5752610788
 31
0.0
  0
LINE
  5
109
330
1F
100
AcDbEntity
  8
0
  6
Continuous
 62
     7
370
    25
100
AcDbLine
 10
332.4919774266
 20
-10.4193238418
 30
0.0
 11
321.6706777579
 21
-4.1723205143
 31
0.0
  0
LINE
  5
10A
330
1F
100
AcDbEntity
  8
0
  6
Continuous
 62
     7
370
    25
100
AcDbLine
 10
314.6712466295
 20
-16.2970045876
 30
0.0
 11
325.4927054831
 21
-22.5440998107
 31
0.0
  0
LINE
  5
10B
330
1F
100
AcDbEntity
  8
0
  6
Continuous
 62
     7
370
    25
100
AcDbLine
 10
280.1661163002
 20
-101.0504675437
 30
0.0
 11
269.3447759501
 21
-94.8034407313
 31
0.0
  0
LINE
  5
10C
330
1F
100
AcDbEntity
  8
0
  6
Continuous
 62
     7
370
    25
100
AcDbLine
 10
262.3453448217
 20
-106.9281248046
 30
0.0
 11
273.1664725784
 21
-113.1750288895
 31
0.0
  0
SPLINE
  5
10D
330
1F
100
AcDbEntity
  8
0
  6
Continuous
 62
     7
370
    25
100
AcDbSpline
210
0.0
220
0.0
230
1.0
 70
     8
 71
     3
 72
    35
 73
    31
 74
     0
 42
0.00000001
 43
0.00000001
 40
0.0
 40
0.0
 40
0.0
 40
0.0
 40
0.0370131743383555
 40
0.0746289158693057
 40
0.1112826699127865
 40
0.1472563760761751
 40
0.182802928336516
 40
0.2181393524636151
 40
0.2534434703947309
 40
0.288851803292586
 40
0.3244259750925285
 40
0.3602319575786947
 40
0.3962988964799166
 40
0.4326224693470536
 40
0.4691708738877104
 40
0.5058919829592974
 40
0.5427213629380117
 40
0.5795750795128018
 40
0.6163837731692111
 40
0.6531033293075702
 40
0.6897154342207933
 40
0.7262353272982512
 40
0.7627183181475014
 40
0.7992645716118429
 40
0.8359967767064833
 40
0.8730716153236334
 40
0.910711297430409
 40
0.9491792807284745
 40
0.988774630375139
 40
1.0
 40
1.0
 40
1.0
 40
1.0
 10
345.5894157789592
 20
-96.59718775388433
 30
0.0
 10
345.5896115880371
 20
-96.5884579665843
 30
0.0
 10
345.5900063939263
 20
-96.57085627276535
 30
0.0
 10
345.6030505851714
 20
-96.39997822230606
 30
0.0
 10
345.6362663767779
 20
-96.12580486750444
 30
0.0
 10
345.697167122265
 20
-95.74571024435468
 30
0.0
 10
345.7922136082926
 20
-95.26886543303678
 30
0.0
 10
345.9271119121787
 20
-94.70143813067145
 30
0.0
 10
346.1065907449136
 20
-94.05147344915193
 30
0.0
 10
346.3342289777612
 20
-93.32810462649302
 30
0.0
 10
346.612304946267
 20
-92.54178376474012
 30
0.0
 10
346.9416527197155
 20
-91.70413577160441
 30
0.0
 10
347.3216759441607
 20
-90.82757788610817
 30
0.0
 10
347.7501313430229
 20
-89.92547310795385
 30
0.0
 10
348.2230563383752
 20
-89.01188982263623
 30
0.0
 10
348.7347679923349
 20
-88.10126275397187
 30
0.0
 10
349.27785998697
 20
-87.20812037257994
 30
0.0
 10
349.8433831464164
 20
-86.3465546281829
 30
0.0
 10
350.4211399028142
 20
-85.52966485809044
 30
0.0
 10
351.0000923267119
 20
-84.76901921333413
 30
0.0
 10
351.5686601745948
 20
-84.07440041956212
 30
0.0
 10
352.1149951966022
 20
-83.45364304391612
 30
0.0
 10
352.6272891087422
 20
-82.9124997197992
 30
0.0
 10
353.0938315754478
 20
-82.45477126198273
 30
0.0
 10
353.5034220259823
 20
-82.08218345483348
 30
0.0
 10
353.8447162360085
 20
-81.79488778800126
 30
0.0
 10
354.1098687714822
 20
-81.58947190855214
 30
0.0
 10
354.2808940318645
 20
-81.46737729097566
 30
0.0
 10
354.3564505075561
 20
-81.41965426214126
 30
0.0
 10
354.3442689370029
 20
-81.4269098987139
 30
0.0
 10
354.3415782503296
 20
-81.42851253644825
 30
0.0
  0
SPLINE
  5
10E
330
1F
100
AcDbEntity
  8
0
  6
Continuous
 62
     7
370
    25
100
AcDbSpline
210
0.0
220
0.0
230
1.0
 70
     8
 71
     3
 72
    40
 73
    36
 74
     0
 42
0.00000001
 43
0.00000001
 40
0.0
 40
0.0
 40
0.0
 40
0.0
 40
0.0148975207991311
 40
0.045789263896742
 40
0.0767517480320983
 40
0.1078566521629263
 40
0.139052945855055
 40
0.1702894763402968
 40
0.2015196654457946
 40
0.2327145441578127
 40
0.2638538483655465
 40
0.2949256666808742
 40
0.3259255457542657
 40
0.3568553601707993
 40
0.3877221393358059
 40
0.4185369707069355
 40
0.4493140366651385
 40
0.4800697979317011
 40
0.5108223084684366
 40
0.5415906309530375
 40
0.572388763008657
 40
0.6032354108881974
 40
0.6341498364013288
 40
0.6651503464402917
 40
0.6962536148306657
 40
0.7274738575438228
 40
0.758821825685049
 40
0.7903035994974656
 40
0.8219192018882191
 40
0.8536611079066849
 40
0.8855128092995226
 40
0.9174476921213626
 40
0.9494217991981913
 40
0.9813771294255769
 40
1.0
 40
1.0
 40
1.0
 40
1.0
 10
313.3976357952438
 20
-11.54401537770509
 30
0.0
 10
312.9765012600046
 20
-11.79176955870169
 30
0.0
 10
311.682095255804
 20
-12.55327086674714
 30
0.0
 10
309.554075914259
 20
-13.91699011128324
 30
0.0
 10
307.0234685832877
 20
-15.65894697921584
 30
0.0
 10
304.5390555300053
 20
-17.50716307369733
 30
0.0
 10
302.1019011079773
 20
-19.4550286677763
 30
0.0
 10
299.7181243955227
 20
-21.49756863263839
 30
0.0
 10
297.3925191823319
 20
-23.62850590703604
 30
0.0
 10
295.1291182984378
 20
-25.84212394108783
 30
0.0
 10
292.9310062328006
 20
-28.13310334604434
 30
0.0
 10
290.8006915249185
 20
-30.49651995584659
 30
0.0
 10
288.7402061567329
 20
-32.92785534065384
 30
0.0
 10
286.7512305885022
 20
-35.4230052601178
 30
0.0
 10
284.8352074996556
 20
-37.97825312162432
 30
0.0
 10
282.9934426020978
 20
-40.59023236199182
 30
0.0
 10
281.2271884614024
 20
-43.25588249149132
 30
0.0
 10
279.5377124648983
 20
-45.97240462460981
 30
0.0
 10
277.9263512660785
 20
-48.73721845700867
 30
0.0
 10
276.3946468294093
 20
-51.54775199818393
 30
0.0
 10
274.9442813684801
 20
-54.40153303829392
 30
0.0
 10
273.5770860471677
 20
-57.29618237519087
 30
0.0
 10
272.2949969924315
 20
-60.22955342876872
 30
0.0
 10
271.1001623101155
 20
-63.19954087434191
 30
0.0
 10
269.9949804096159
 20
-66.20398513182212
 30
0.0
 10
268.982118150365
 20
-69.24058957905577
 30
0.0
 10
268.0645239823104
 20
-72.30681783455756
 30
0.0
 10
267.2454170338846
 20
-75.39977078404989
 30
0.0
 10
266.5282974940947
 20
-78.51604072938117
 30
0.0
 10
265.9167734304846
 20
-81.65156804511317
 30
0.0
 10
265.4149334831494
 20
-84.80145057988244
 30
0.0
 10
265.0255203286588
 20
-87.95975402733538
 30
0.0
 10
264.7561817878565
 20
-91.1187470645757
 30
0.0
 10
264.617354333025
 20
-93.83517604173925
 30
0.0
 10
264.6019472174054
 20
-95.49417198363672
 30
0.0
 10
264.5962743244287
 20
-96.10501353631498
 30
0.0
  0
LWPOLYLINE
  5
10F
330
1F
100
AcDbEntity
  8
0
  6
Continuous
 62
     7
370
    25
100
AcDbPolyline
 90
      109
 70
   128
 43
0.0
 10
335.8486317233
 20
-12.2756828305
 10
335.8970823901
 20
-14.2264966502
 10
336.0422704486
 20
-16.2266494825
 10
336.2837046284
 20
-18.2693734435
 10
336.6205679928
 20
-20.3477566017
 10
337.0517207026
 20
-22.4547663666
 10
337.5757038737
 20
-24.583273284
 10
338.1907445127
 20
-26.7260751603
 10
338.894761517
 20
-28.8759214323
 10
339.6853727157
 20
-31.0255377005
 10
340.5599029309
 20
-33.1676503442
 10
341.5153930292
 20
-35.2950111321
 10
342.5486099344
 20
-37.4004217487
 10
343.6560575677
 20
-39.4767581509
 10
344.8339886768
 20
-41.5169946737
 10
346.0784175157
 20
-43.5142278025
 10
347.3851333311
 20
-45.4616995324
 10
348.7497146104
 20
-47.3528202358
 10
350.1675440424
 20
-49.1811909587
 10
351.6338241411
 20
-50.9406250733
 10
353.1435934789
 20
-52.6251692116
 10
354.6917434742
 20
-54.2291234094
 10
356.2730356774
 20
-55.7470603935
 10
357.8821194963
 20
-57.1738439455
 10
359.5135503007
 20
-58.5046462816
 10
361.161807845
 20
-59.734964388
 10
362.8213149475
 20
-60.8606352575
 10
364.4864563614
 20
-61.8778499763
 10
366.1515977754
 20
-62.7831666118
 10
367.8111048778
 20
-63.573521859
 10
369.4593624221
 20
-64.2462414061
 10
371.0907932265
 20
-64.7990489829
 10
372.6998770454
 20
-65.2300740636
 10
374.2811692486
 20
-65.5378581959
 10
375.8293192439
 20
-65.7213599355
 10
377.3390885817
 20
-65.7799583708
 10
378.8053686804
 20
-65.7134552231
 10
380.2231981124
 20
-65.522075518
 10
381.5877793917
 20
-65.206466824
 10
382.8944952071
 20
-64.7676970609
 10
384.138924046
 20
-64.2072508867
 10
385.3168551551
 20
-63.5270246738
 10
386.4243027884
 20
-62.7293200925
 10
387.4575196936
 20
-61.8168363225
 10
388.4130097919
 20
-60.7926609201
 10
389.2875400071
 20
-59.6602593707
 10
390.0781512058
 20
-58.4234633625
 10
390.7821682101
 20
-57.0864578219
 10
391.3972088491
 20
-55.6537667523
 10
391.9211920202
 20
-54.1302379269
 10
392.35234473
 20
-52.5210264848
 10
392.6892080944
 20
-50.8315774883
 10
392.9306422742
 20
-49.067607498
 10
393.0758303327
 20
-47.2350852299
 10
393.1242809995
 20
-45.3402113593
 10
393.0758303327
 20
-43.3893975397
 10
392.9306422742
 20
-41.3892447073
 10
392.6892080944
 20
-39.3465207464
 10
392.35234473
 20
-37.2681375881
 10
391.9211920202
 20
-35.1611278232
 10
391.3972088491
 20
-33.0326209058
 10
390.7821682101
 20
-30.8898190295
 10
390.0781512058
 20
-28.7399727576
 10
389.2875400071
 20
-26.5903564893
 10
388.4130097919
 20
-24.4482438456
 10
387.4575196936
 20
-22.3208830578
 10
386.4243027884
 20
-20.2154724412
 10
385.3168551551
 20
-18.1391360389
 10
384.138924046
 20
-16.0988995161
 10
382.8944952071
 20
-14.1016663874
 10
381.5877793917
 20
-12.1541946574
 10
380.2231981124
 20
-10.2630739541
 10
378.8053686804
 20
-8.4347032312
 10
377.3390885817
 20
-6.6752691165
 10
375.8293192439
 20
-4.9907249782
 10
374.2811692486
 20
-3.3867707804
 10
372.6998770454
 20
-1.8688337963
 10
371.0907932265
 20
-0.4420502443
 10
369.4593624221
 20
0.8887520918
 10
367.8111048778
 20
2.1190701981
 10
366.1515977754
 20
3.2447410676
 10
364.4864563614
 20
4.2619557865
 10
362.8213149475
 20
5.167272422
 10
361.161807845
 20
5.9576276692
 10
359.5135503007
 20
6.6303472162
 10
357.8821194963
 20
7.1831547931
 10
356.2730356774
 20
7.6141798738
 10
354.6917434742
 20
7.921964006
 10
353.1435934789
 20
8.1054657457
 10
351.6338241411
 20
8.1640641809
 10
350.1675440424
 20
8.0975610332
 10
348.7497146104
 20
7.9061813282
 10
347.3851333311
 20
7.5905726342
 10
346.0784175157
 20
7.1518028711
 10
344.8339886768
 20
6.5913566969
 10
343.6560575677
 20
5.911130484
 10
342.5486099344
 20
5.1134259027
 10
341.5153930292
 20
4.2009421327
 10
340.5599029309
 20
3.1767667303
 10
339.6853727157
 20
2.0443651808
 10
338.894761517
 20
0.8075691727
 10
338.1907445127
 20
-0.5294363679
 10
337.5757038737
 20
-1.9621274375
 10
337.0517207026
 20
-3.485656263
 10
336.6205679928
 20
-5.094867705
 10
336.2837046284
 20
-6.7843167015
 10
336.0422704486
 20
-8.5482866918
 10
335.8970823901
 20
-10.3808089599
 10
335.8486317233
 20
-12.2756828305
  0
LWPOLYLINE
  5
110
330
1F
100
AcDbEntity
  8
0
  6
Continuous
 62
     7
370
    25
100
AcDbPolyline
 90
       96
 70
   128
 43
0.0
 10
342.212592754
 20
-15.9495193337
 10
342.2612917232
 20
-14.2777143796
 10
342.4071756823
 20
-12.6694464361
 10
342.6496067181
 20
-11.1317480498
 10
342.9875247413
 20
-9.6713431844
 10
343.4194521223
 20
-8.2946178188
 10
343.9435001526
 20
-7.0075920228
 10
344.5573773035
 20
-5.8158936327
 10
345.2583992464
 20
-4.7247336423
 10
346.0435005907
 20
-3.7388834167
 10
346.9092482881
 20
-2.8626538281
 10
347.851856644
 20
-2.0998764054
 10
348.867203872
 20
-1.4538865803
 10
349.9508501171
 20
-0.927509102
 10
351.0980568699
 20
-0.5230456852
 10
352.3038076871
 20
-0.2422649455
 10
353.5628301272
 20
-0.0863946656
 10
354.8696188055
 20
-0.0561164267
 10
356.2184594676
 20
-0.1515626278
 10
357.6034539763
 20
-0.3723159069
 10
359.0185461032
 20
-0.717410966
 10
360.4575480105
 20
-1.1853387924
 10
361.9141673088
 20
-1.7740532567
 10
363.3820345727
 20
-2.4809800602
 10
364.854731192
 20
-3.3030279921
 10
366.3258174392
 20
-4.2366024457
 10
367.7888606285
 20
-5.2776211377
 10
369.2374632441
 20
-6.421531958
 10
370.6652909155
 20
-7.6633328758
 10
372.0661001154
 20
-8.9975938116
 10
373.4337654618
 20
-10.4184803818
 10
374.7623065021
 20
-11.919779411
 10
376.0459138642
 20
-13.4949261005
 10
377.2789746598
 20
-15.1370327346
 10
378.4560970278
 20
-16.8389187988
 10
379.5721337116
 20
-18.5931423783
 10
380.6222045667
 20
-20.3920326998
 10
381.6017179004
 20
-22.2277236737
 10
382.5063905502
 20
-24.0921882904
 10
383.3322666127
 20
-25.9772737204
 10
384.075734742
 20
-27.8747369648
 10
384.7335439413
 20
-29.7762808997
 10
385.3028177782
 20
-31.6735905573
 10
385.7810669631
 20
-33.5583694851
 10
386.1662002339
 20
-35.4223760246
 10
386.456533501
 20
-37.2574593492
 10
386.6507972107
 20
-39.0555951066
 10
386.7481418974
 20
-40.8089205067
 10
386.7481418974
 20
-42.5097687036
 10
386.6507972107
 20
-44.1507023208
 10
386.456533501
 20
-45.7245459731
 10
386.1662002339
 20
-47.2244176428
 10
385.7810669631
 20
-48.6437587727
 10
385.3028177782
 20
-49.976362945
 10
384.7335439413
 20
-51.2164030209
 10
384.075734742
 20
-52.3584566205
 10
383.3322666127
 20
-53.3975298342
 10
382.5063905502
 20
-54.329079059
 10
381.6017179004
 20
-55.1490308673
 10
380.6222045667
 20
-55.8537998184
 10
379.5721337116
 20
-56.440304137
 10
378.4560970278
 20
-56.905979189
 10
377.2789746598
 20
-57.2487886959
 10
376.0459138642
 20
-57.4672336388
 10
374.7623065021
 20
-57.5603588137
 10
373.4337654618
 20
-57.5277570078
 10
372.0661001154
 20
-57.3695707806
 10
370.6652909155
 20
-57.0864918401
 10
369.2374632441
 20
-56.6797580186
 10
367.7888606285
 20
-56.1511478596
 10
366.3258174392
 20
-55.5029728408
 10
364.854731192
 20
-54.7380672666
 10
363.3820345727
 20
-53.8597758744
 10
361.9141673088
 20
-52.8719392092
 10
360.4575480105
 20
-51.7788768292
 10
359.0185461032
 20
-50.5853684182
 10
357.6034539763
 20
-49.2966328847
 10
356.2184594676
 20
-47.9183055413
 10
354.8696188055
 20
-46.4564134628
 10
353.5628301272
 20
-44.9173491314
 10
352.3038076871
 20
-43.3078424837
 10
351.0980568699
 20
-41.6349314827
 10
349.9508501171
 20
-39.9059313427
 10
348.867203872
 20
-38.1284025414
 10
347.851856644
 20
-36.3101177598
 10
346.9092482881
 20
-34.4590278947
 10
346.0435005907
 20
-32.5832272912
 10
345.2583992464
 20
-30.6909183479
 10
344.5573773035
 20
-28.7903756505
 10
343.9435001526
 20
-26.8899097885
 10
343.4194521223
 20
-24.9978310156
 10
342.9875247413
 20
-23.1224129109
 10
342.6496067181
 20
-21.2718562006
 10
342.4071756823
 20
-19.4542528983
 10
342.2612917232
 20
-17.6775509208
 10
342.212592754
 20
-15.9495193337
  0
LINE
  5
111
330
1F
100
AcDbEntity
  8
0
  6
Continuous
 62
     7
370
    25
100
AcDbLine
 10
354.3292191063
 20
-81.4357004255
 30
0.0
 11
354.374635592
 21
-81.4093641867
 31
0.0
  0
SPLINE
  5
112
330
1F
100
AcDbEntity
  8
0
  6
Continuous
 62
     7
370
    25
100
AcDbSpline
210
0.0
220
0.0
230
1.0
 70
     8
 71
     3
 72
    27
 73
    23
 74
     0
 42
0.00000001
 43
0.00000001
 40
0.0
 40
0.0
 40
0.0
 40
0.0
 40
0.0161449938539248
 40
0.069761888186657
 40
0.1237371294474702
 40
0.1777085223770976
 40
0.2311449922043728
 40
0.2845805649458112
 40
0.3374201663191387
 40
0.390262977394558
 40
0.443378523367002
 40
0.496496340463031
 40
0.550325401603407
 40
0.604152253721774
 40
0.6580303479796064
 40
0.7119050421625859
 40
0.7650983621427421
 40
0.8182923530891039
 40
0.8711371446865422
 40
0.9239853723708786
 40
0.977334101540719
 40
0.9999999999999999
 40
0.9999999999999999
 40
0.9999999999999999
 40
0.9999999999999999
 10
325.5036880795192
 20
-22.52588214519687
 30
0.0
 10
325.5669544879552
 20
-22.56918265202294
 30
0.0
 10
325.8403261690603
 20
-22.75628245168583
 30
0.0
 10
326.4225401197756
 20
-22.91532996964428
 30
0.0
 10
327.2221412669215
 20
-22.97815488729142
 30
0.0
 10
328.0665440221417
 20
-22.83934685080539
 30
0.0
 10
328.9163038894862
 20
-22.50948311237923
 30
0.0
 10
329.7454286014888
 20
-22.00488683349135
 30
0.0
 10
330.5306395718513
 20
-21.33496555177443
 30
0.0
 10
331.257120851294
 20
-20.52754935874225
 30
0.0
 10
331.9082500948843
 20
-19.59890645987995
 30
0.0
 10
332.4774854713697
 20
-18.57693159280889
 30
0.0
 10
332.9492335255291
 20
-17.49011156530379
 30
0.0
 10
333.3189033433989
 20
-16.3724416128025
 30
0.0
 10
333.5749989761576
 20
-15.26298655341206
 30
0.0
 10
333.7172401426874
 20
-14.19917883451217
 30
0.0
 10
333.7411995415341
 20
-13.21580587276126
 30
0.0
 10
333.6520350351752
 20
-12.33882807795138
 30
0.0
 10
333.4499333682018
 20
-11.58904574505019
 30
0.0
 10
333.1342067479646
 20
-10.9888368874695
 30
0.0
 10
332.8085038653617
 20
-10.60222881730911
 30
0.0
 10
332.5554363273448
 20
-10.47760723096604
 30
0.0
 10
332.4799771256235
 20
-10.44044780113017
 30
0.0
  0
LWPOLYLINE
  5
113
330
1F
100
AcDbEntity
  8
0
  6
Continuous
 62
     7
370
    25
100
AcDbPolyline
 90
      109
 70
   128
 43
0.0
 10
276.4516621037
 20
-115.1542517255
 10
278.1652541844
 20
-114.2209560229
 10
279.9699493454
 20
-113.3467582466
 10
281.8596410695
 20
-112.5346164052
 10
283.8279352382
 20
-111.7872785296
 10
285.868171767
 20
-111.1072733747
 10
287.9734471412
 20
-110.4969018625
 10
290.1366377756
 20
-109.9582292971
 10
292.3504241176
 20
-109.493078376
 10
294.6073154151
 20
-109.1030230226
 10
296.8996750623
 20
-108.7893830608
 10
299.2197464398
 20
-108.5532197488
 10
301.5596791605
 20
-108.3953321887
 10
303.9115556326
 20
-108.3162546219
 10
306.2674178508
 20
-108.3162546219
 10
308.619294323
 20
-108.3953321887
 10
310.9592270437
 20
-108.5532197488
 10
313.2792984212
 20
-108.7893830608
 10
315.5716580684
 20
-109.1030230226
 10
317.8285493659
 20
-109.493078376
 10
320.0423357079
 20
-109.9582292971
 10
322.2055263422
 20
-110.4969018625
 10
324.3108017165
 20
-111.1072733747
 10
326.3510382453
 20
-111.7872785296
 10
328.319332414
 20
-112.5346164052
 10
330.2090241381
 20
-113.3467582466
 10
332.0137192991
 20
-114.2209560229
 10
333.7273113798
 20
-115.1542517255
 10
335.344002127
 20
-116.1434873772
 10
336.858321171
 20
-117.1853157177
 10
338.2651445354
 20
-118.2762115297
 10
339.5597119754
 20
-119.412483567
 10
340.7376430845
 20
-120.5902870448
 10
341.7949521167
 20
-121.8056366489
 10
342.7280614729
 20
-123.054420021
 10
343.5338138064
 20
-124.3324116735
 10
344.2094827064
 20
-125.635287287
 10
344.7527819232
 20
-126.958638343
 10
345.1618731043
 20
-128.2979870404
 10
345.4353720145
 20
-129.6488014472
 10
345.5723532201
 20
-131.0065108349
 10
345.5723532201
 20
-132.3665211448
 10
345.4353720145
 20
-133.7242305326
 10
345.1618731043
 20
-135.0750449393
 10
344.7527819232
 20
-136.4143936367
 10
344.2094827064
 20
-137.7377446927
 10
343.5338138064
 20
-139.0406203063
 10
342.7280614729
 20
-140.3186119587
 10
341.7949521167
 20
-141.5673953308
 10
340.7376430845
 20
-142.7827449349
 10
339.5597119754
 20
-143.9605484127
 10
338.2651445354
 20
-145.0968204501
 10
336.858321171
 20
-146.1877162621
 10
335.344002127
 20
-147.2295446026
 10
333.7273113798
 20
-148.2187802543
 10
332.0137192991
 20
-149.1520759569
 10
330.2090241381
 20
-150.0262737332
 10
328.319332414
 20
-150.8384155745
 10
326.3510382453
 20
-151.5857534501
 10
324.3108017165
 20
-152.2657586051
 10
322.2055263422
 20
-152.8761301172
 10
320.0423357079
 20
-153.4148026826
 10
317.8285493659
 20
-153.8799536037
 10
315.5716580684
 20
-154.2700089571
 10
313.2792984212
 20
-154.583648919
 10
310.9592270437
 20
-154.8198122309
 10
308.619294323
 20
-154.977699791
 10
306.2674178508
 20
-155.0567773578
 10
303.9115556326
 20
-155.0567773578
 10
301.5596791605
 20
-154.977699791
 10
299.2197464398
 20
-154.8198122309
 10
296.8996750623
 20
-154.583648919
 10
294.6073154151
 20
-154.2700089571
 10
292.3504241176
 20
-153.8799536037
 10
290.1366377756
 20
-153.4148026826
 10
287.9734471412
 20
-152.8761301172
 10
285.868171767
 20
-152.2657586051
 10
283.8279352382
 20
-151.5857534501
 10
281.8596410695
 20
-150.8384155745
 10
279.9699493454
 20
-150.0262737332
 10
278.1652541844
 20
-149.1520759569
 10
276.4516621037
 20
-148.2187802543
 10
274.8349713565
 20
-147.2295446026
 10
273.3206523125
 20
-146.1877162621
 10
271.913828948
 20
-145.0968204501
 10
270.619261508
 20
-143.9605484127
 10
269.4413303989
 20
-142.7827449349
 10
268.3840213668
 20
-141.5673953308
 10
267.4509120105
 20
-140.3186119587
 10
266.645159677
 20
-139.0406203063
 10
265.969490777
 20
-137.7377446927
 10
265.4261915602
 20
-136.4143936367
 10
265.0171003792
 20
-135.0750449393
 10
264.743601469
 20
-133.7242305326
 10
264.6066202634
 20
-132.3665211448
 10
264.6066202634
 20
-131.0065108349
 10
264.743601469
 20
-129.6488014472
 10
265.0171003792
 20
-128.2979870404
 10
265.4261915602
 20
-126.958638343
 10
265.969490777
 20
-125.635287287
 10
266.645159677
 20
-124.3324116735
 10
267.4509120105
 20
-123.054420021
 10
268.3840213668
 20
-121.8056366489
 10
269.4413303989
 20
-120.5902870448
 10
270.619261508
 20
-119.412483567
 10
271.913828948
 20
-118.2762115297
 10
273.3206523125
 20
-117.1853157177
 10
274.8349713565
 20
-116.1434873772
 10
276.4516621037
 20
-115.1542517255
  0
LWPOLYLINE
  5
114
330
1F
100
AcDbEntity
  8
0
  6
Continuous
 62
     7
370
    25
100
AcDbPolyline
 90
       96
 70
   128
 43
0.0
 10
282.8156231344
 20
-118.8280882287
 10
281.3922294425
 20
-119.7060225494
 10
280.0724578273
 20
-120.6363445196
 10
278.8620793143
 20
-121.6149860781
 10
277.7663865807
 20
-122.6376678744
 10
276.7901708121
 20
-123.699917981
 10
275.9377007517
 20
-124.7970914487
 10
275.2127040341
 20
-125.924390617
 10
274.6183508855
 20
-127.0768860934
 10
274.157240261
 20
-128.2495383085
 10
273.83138848
 20
-129.4372195525
 10
273.6422204095
 20
-130.6347363975
 10
273.5905632333
 20
-131.8368524071
 10
273.6766428351
 20
-133.0383110337
 10
273.9000828107
 20
-134.2338586046
 10
274.2599061139
 20
-135.4182672944
 10
274.754539329
 20
-136.5863579852
 10
275.3818195508
 20
-137.7330229137
 10
276.1390038425
 20
-138.8532480058
 10
277.0227812298
 20
-139.9421348023
 10
278.0292871791
 20
-140.9949218783
 10
279.1541204959
 20
-142.0070056638
 10
280.3923625704
 20
-142.9739605738
 10
281.738598885
 20
-143.8915583606
 10
283.1869426909
 20
-144.7557866026
 10
284.7310607491
 20
-145.5628662495
 10
286.3642010242
 20
-146.3092681473
 10
288.0792222093
 20
-146.9917284706
 10
289.8686249532
 20
-147.6072629939
 10
291.724584653
 20
-148.1531801413
 10
293.638985669
 20
-148.6270927562
 10
295.6034568128
 20
-149.0269285392
 10
297.6094079518
 20
-149.3509391102
 10
299.6480675722
 20
-149.5977076534
 10
301.7105211341
 20
-149.7661551127
 10
303.7877500529
 20
-149.8555449102
 10
305.870671135
 20
-149.8654861672
 10
307.9501762965
 20
-149.795935413
 10
310.0171723905
 20
-149.6471967753
 10
312.0626209689
 20
-149.4199206505
 10
314.0775778056
 20
-149.1151008591
 10
316.0532320069
 20
-148.7340703006
 10
317.9809445398
 20
-148.2784951247
 10
319.8522860078
 20
-147.7503674455
 10
321.6590735109
 20
-147.1519966313
 10
323.3934064269
 20
-146.4859992051
 10
325.0477009593
 20
-145.7552874045
 10
326.6147232991
 20
-144.963056446
 10
328.0876212563
 20
-144.1127705542
 10
329.4599542228
 20
-143.2081478129
 10
330.7257213357
 20
-142.2531439071
 10
331.8793877177
 20
-141.251934826
 10
332.915908679
 20
-140.2088986022
 10
333.8307517772
 20
-139.1285961676
 10
334.6199166363
 20
-138.0157514099
 10
335.2799524392
 20
-136.8752305161
 10
335.8079730171
 20
-135.7120206939
 10
336.2016694705
 20
-134.5312083639
 10
336.4593202649
 20
-133.337956918
 10
336.579798759
 20
-132.137484141
 10
336.5625781309
 20
-130.935039395
 10
336.4077336822
 20
-129.735880665
 10
336.1159425081
 20
-128.545251567
 10
335.6884805372
 20
-127.368358419
 10
335.127216952
 20
-126.2103474754
 10
334.4346060154
 20
-125.0762824233
 10
333.6136763386
 20
-123.9711222408
 10
332.6680176383
 20
-122.899699512
 10
331.6017650395
 20
-121.866699296
 10
330.4195809934
 20
-120.8766386399
 10
329.12663489
 20
-119.9338468269
 10
327.7285804538
 20
-119.0424464459
 10
326.231531021
 20
-118.2063353639
 10
324.6420328078
 20
-117.4291696819
 10
322.9670362857
 20
-116.7143477477
 10
321.2138657881
 20
-116.0649952958
 10
319.3901874835
 20
-115.4839517791
 10
317.5039758533
 20
-114.9737579532
 10
315.5634788209
 20
-114.5366447658
 10
313.5771816861
 20
-114.1745236018
 10
311.5537700209
 20
-113.8889779247
 10
309.5020916897
 20
-113.6812563532
 10
307.4311181598
 20
-113.5522672009
 10
305.3499052714
 20
-113.5025745045
 10
303.2675536391
 20
-113.5323955576
 10
301.1931688568
 20
-113.6415999602
 10
299.1358216811
 20
-113.8297101893
 10
297.1045083679
 20
-114.0959036868
 10
295.1081113335
 20
-114.4390164561
 10
293.1553603141
 20
-114.8575481525
 10
291.254794193
 20
-115.3496686433
 10
289.4147236625
 20
-115.9132260108
 10
287.6431948826
 20
-116.5457559621
 10
285.947954298
 20
-117.2444926047
 10
284.3364147645
 20
-118.0063805409
 10
282.8156231344
 20
-118.8280882287
  0
LINE
  5
115
330
1F
100
AcDbEntity
  8
0
  6
Continuous
 62
     7
370
    25
100
AcDbLine
 10
345.5894867417
 20
-96.5752610788
 30
0.0
 11
345.5893768303
 21
-96.6297308928
 31
0.0
  0
SPLINE
  5
116
330
1F
100
AcDbEntity
  8
0
  6
Continuous
 62
     7
370
    25
100
AcDbSpline
210
0.0
220
0.0
230
1.0
 70
     8
 71
     3
 72
    22
 73
    18
 74
     0
 42
0.00000001
 43
0.00000001
 40
0.0
 40
0.0
 40
0.0
 40
0.0
 40
0.070867075333584
 40
0.1417370700111621
 40
0.2125723213948477
 40
0.2834118273087557
 40
0.3548983144944063
 40
0.4263838916264741
 40
0.4983472404998229
 40
0.570305458524411
 40
0.6415504818149735
 40
0.7127943090515748
 40
0.7832435479828713
 40
0.8536970663005314
 40
0.9245142127574281
 40
0.9953343872259659
 40
1.0
 40
1.0
 40
1.0
 40
1.0
 10
276.4516621036798
 20
-112.7046292898076
 30
0.0
 10
276.7300489029712
 20
-112.5309457821279
 30
0.0
 10
277.2868339695994
 20
-112.1835716119382
 30
0.0
 10
278.1272636586911
 20
-111.4941597344494
 30
0.0
 10
278.9380361538852
 20
-110.7005911701209
 30
0.0
 10
279.69817079142
 20
-109.8104520013287
 30
0.0
 10
280.3781759712186
 20
-108.8444943252979
 30
0.0
 10
280.9575396585861
 20
-107.8241272857431
 30
0.0
 10
281.4061031004534
 20
-106.7751041663022
 30
0.0
 10
281.7095458937246
 20
-105.7280499418378
 30
0.0
 10
281.8482662647186
 20
-104.7136808750524
 30
0.0
 10
281.826052182861
 20
-103.7616489672947
 30
0.0
 10
281.6378509352791
 20
-102.8997097753825
 30
0.0
 10
281.3039641745472
 20
-102.140665063723
 30
0.0
 10
280.8172627455493
 20
-101.5337068263915
 30
0.0
 10
280.4262424003382
 20
-101.1677681329782
 30
0.0
 10
280.178601350985
 20
-101.0623892983432
 30
0.0
 10
280.1632951948802
 20
-101.0558760611506
 30
0.0
  0
SPLINE
  5
117
330
1F
100
AcDbEntity
  8
0
  6
Continuous
 62
     7
370
    25
100
AcDbSpline
210
0.0
220
0.0
230
1.0
 70
     8
 71
     3
 72
    12
 73
     8
 74
     0
 42
0.00000001
 43
0.00000001
 40
0.0
 40
0.0
 40
0.0
 40
0.0
 40
0.0453872622241906
 40
0.2598854123272827
 40
0.4759152538571548
 40
0.691930188386473
 40
1.0
 40
1.0
 40
1.0
 40
1.0
 10
273.1753773304118
 20
-113.1605439302305
 30
0.0
 10
273.2091907008503
 20
-113.1858701114715
 30
0.0
 10
273.4028045318667
 20
-113.3308866807016
 30
0.0
 10
273.8534983821421
 20
-113.4307901982465
 30
0.0
 10
274.5246076501453
 20
-113.4385129084299
 30
0.0
 10
275.3835481940642
 20
-113.2500696906802
 30
0.0
 10
276.0562383835907
 20
-112.9065553863206
 30
0.0
 10
276.4516621036798
 20
-112.7046292898076
 30
0.0
  0
LWPOLYLINE
  5
118
330
1F
100
AcDbEntity
  8
0
  6
Continuous
 62
     7
370
    25
100
AcDbPolyline
 90
       45
 70
   128
 43
0.0
 10
313.2212147254
 20
-13.0920909423
 10
313.2715960177
 20
-12.2495653263
 10
313.4217142767
 20
-11.3660221002
 10
313.6685135276
 20
-10.4594476563
 10
314.0069696494
 20
-9.5482972358
 10
314.4301926514
 20
-8.6511192339
 10
314.9295669337
 20
-7.7861776073
 10
315.4949266762
 20
-6.9710800734
 10
316.1147627848
 20
-6.2224196673
 10
316.7764571837
 20
-5.5554369559
 10
317.4665396832
 20
-4.9837097839
 10
318.1709621937
 20
-4.5188768678
 10
318.8753847041
 20
-4.1704008651
 10
319.5654672037
 20
-3.9453757425
 10
320.2271616026
 20
-3.8483823626
 10
320.8469977111
 20
-3.8813952307
 10
321.4123574536
 20
-4.0437423002
 10
321.911731736
 20
-4.3321186528
 10
322.334954738
 20
-4.7406537777
 10
322.6734108598
 20
-5.2610310778
 10
322.9202101107
 20
-5.8826571719
 10
323.0703283697
 20
-6.5928775454
 10
323.120709662
 20
-7.3772341596
 10
323.0703283697
 20
-8.2197597756
 10
322.9202101107
 20
-9.1033030017
 10
322.6734108598
 20
-10.0098774456
 10
322.334954738
 20
-10.9210278661
 10
321.911731736
 20
-11.818205868
 10
321.4123574536
 20
-12.6831474946
 10
320.8469977111
 20
-13.4982450285
 10
320.2271616026
 20
-14.2469054346
 10
319.5654672037
 20
-14.913888146
 10
318.8753847041
 20
-15.485615318
 10
318.1709621937
 20
-15.9504482342
 10
317.4665396832
 20
-16.2989242368
 10
316.7764571837
 20
-16.5239493594
 10
316.1147627848
 20
-16.6209427393
 10
315.4949266762
 20
-16.5879298712
 10
314.9295669337
 20
-16.4255828017
 10
314.4301926514
 20
-16.1372064491
 10
314.0069696494
 20
-15.7286713242
 10
313.6685135276
 20
-15.2082940241
 10
313.4217142767
 20
-14.58666793
 10
313.2715960177
 20
-13.8764475565
 10
313.2212147254
 20
-13.0920909423
  0
LWPOLYLINE
  5
119
330
1F
100
AcDbEntity
  8
0
  6
Continuous
 62
     7
370
    25
100
AcDbPolyline
 90
       38
 70
   128
 43
0.0
 10
314.6354282878
 20
-12.2756828305
 10
314.6862837244
 20
-11.5563442766
 10
314.8373870161
 20
-10.7989833459
 10
315.0843911962
 20
-10.0253879334
 10
315.4201904043
 20
-9.2578129706
 10
315.8351243083
 20
-8.5183401916
 10
316.3172560155
 20
-7.8282428821
 10
316.8527154744
 20
-7.207373885
 10
317.4260984913
 20
-6.6735944711
 10
318.0209098808
 20
-6.2422605023
 10
318.6200380021
 20
-5.9257806714
 10
319.20624703
 20
-5.733259527
 10
319.7626727981
 20
-5.670235552
 10
320.2733079501
 20
-5.7385218313
 10
320.7234624425
 20
-5.936153893
 10
321.10018615
 20
-6.2574462225
 10
321.3926414175
 20
-6.6931558245
 10
321.5924148395
 20
-7.230748127
 10
321.6937592982
 20
-7.8547575782
 10
321.6937592982
 20
-8.5472325625
 10
321.5924148395
 20
-9.2882518352
 10
321.3926414175
 20
-10.056497621
 10
321.10018615
 20
-10.8298688876
 10
320.7234624425
 20
-11.5861171515
 10
320.2733079501
 20
-12.3034865271
 10
319.7626727981
 20
-12.9613396037
 10
319.20624703
 20
-13.5407511459
 10
318.6200380021
 20
-14.0250525386
 10
318.0209098808
 20
-14.4003113125
 10
317.4260984913
 20
-14.6557319559
 10
316.8527154744
 20
-14.7839664819
 10
316.3172560155
 20
-14.7813258168
 10
315.8351243083
 20
-14.6478859275
 10
315.4201904043
 20
-14.3874856369
 10
315.0843911962
 20
-14.0076161871
 10
314.8373870161
 20
-13.5192057306
 10
314.6862837244
 20
-12.936304947
 10
314.6354282878
 20
-12.2756828305
  0
LWPOLYLINE
  5
11A
330
1F
100
AcDbEntity
  8
0
  6
Continuous
 62
     7
370
    25
100
AcDbPolyline
 90
       45
 70
   128
 43
0.0
 10
260.8953129176
 20
-103.7232111593
 10
260.9456942099
 20
-102.8806855433
 10
261.0958124689
 20
-101.9971423172
 10
261.3426117198
 20
-101.0905678733
 10
261.6810678415
 20
-100.1794174528
 10
262.1042908435
 20
-99.2822394509
 10
262.6036651259
 20
-98.4172978243
 10
263.1690248684
 20
-97.6022002904
 10
263.788860977
 20
-96.8535398843
 10
264.4505553759
 20
-96.1865571729
 10
265.1406378754
 20
-95.6148300009
 10
265.8450603859
 20
-95.1499970847
 10
266.5494828963
 20
-94.8015210821
 10
267.2395653958
 20
-94.5764959595
 10
267.9012597948
 20
-94.4795025796
 10
268.5210959033
 20
-94.5125154477
 10
269.0864556458
 20
-94.6748625172
 10
269.5858299282
 20
-94.9632388698
 10
270.0090529302
 20
-95.3717739947
 10
270.347509052
 20
-95.8921512948
 10
270.5943083029
 20
-96.5137773889
 10
270.7444265619
 20
-97.2239977624
 10
270.7948078542
 20
-98.0083543766
 10
270.7444265619
 20
-98.8508799926
 10
270.5943083029
 20
-99.7344232187
 10
270.347509052
 20
-100.6409976626
 10
270.0090529302
 20
-101.552148083
 10
269.5858299282
 20
-102.449326085
 10
269.0864556458
 20
-103.3142677115
 10
268.5210959033
 20
-104.1293652455
 10
267.9012597948
 20
-104.8780256516
 10
267.2395653958
 20
-105.545008363
 10
266.5494828963
 20
-106.116735535
 10
265.8450603859
 20
-106.5815684511
 10
265.1406378754
 20
-106.9300444538
 10
264.4505553759
 20
-107.1550695763
 10
263.788860977
 20
-107.2520629563
 10
263.1690248684
 20
-107.2190500882
 10
262.6036651259
 20
-107.0567030187
 10
262.1042908435
 20
-106.768326666
 10
261.6810678415
 20
-106.3597915412
 10
261.3426117198
 20
-105.8394142411
 10
261.0958124689
 20
-105.217788147
 10
260.9456942099
 20
-104.5075677735
 10
260.8953129176
 20
-103.7232111593
  0
LWPOLYLINE
  5
11B
330
1F
100
AcDbEntity
  8
0
  6
Continuous
 62
     7
370
    25
100
AcDbPolyline
 90
       38
 70
   128
 43
0.0
 10
262.3095264799
 20
-102.9068030475
 10
262.3603819166
 20
-102.1874644936
 10
262.5114852083
 20
-101.4301035629
 10
262.7584893884
 20
-100.6565081504
 10
263.0942885965
 20
-99.8889331875
 10
263.5092225005
 20
-99.1494604086
 10
263.9913542077
 20
-98.4593630991
 10
264.5268136666
 20
-97.838494102
 10
265.1001966835
 20
-97.3047146881
 10
265.695008073
 20
-96.8733807193
 10
266.2941361943
 20
-96.5569008884
 10
266.8803452222
 20
-96.364379744
 10
267.4367709903
 20
-96.301355769
 10
267.9474061423
 20
-96.3696420483
 10
268.3975606347
 20
-96.56727411
 10
268.7742843422
 20
-96.8885664395
 10
269.0667396097
 20
-97.3242760415
 10
269.2665130317
 20
-97.8618683439
 10
269.3678574904
 20
-98.4858777952
 10
269.3678574904
 20
-99.1783527794
 10
269.2665130317
 20
-99.9193720522
 10
269.0667396097
 20
-100.687617838
 10
268.7742843422
 20
-101.4609891046
 10
268.3975606347
 20
-102.2172373685
 10
267.9474061423
 20
-102.9346067441
 10
267.4367709903
 20
-103.5924598207
 10
266.8803452222
 20
-104.1718713629
 10
266.2941361943
 20
-104.6561727555
 10
265.695008073
 20
-105.0314315294
 10
265.1001966835
 20
-105.2868521728
 10
264.5268136666
 20
-105.4150866989
 10
263.9913542077
 20
-105.4124460337
 10
263.5092225005
 20
-105.2790061445
 10
263.0942885965
 20
-105.0186058539
 10
262.7584893884
 20
-104.6387364041
 10
262.5114852083
 20
-104.1503259476
 10
262.3603819166
 20
-103.567425164
 10
262.3095264799
 20
-102.9068030475
  0
LWPOLYLINE
  5
11C
330
1F
100
AcDbEntity
  8
0
  6
Continuous
 62
     1
370
    25
100
AcDbPolyline
 90
       42
 70
   128
 43
0.0
 10
305.4430401323
 20
-29.8284572347
 10
305.4914907991
 20
-31.7792710544
 10
305.6366788576
 20
-33.7794238867
 10
305.8781130374
 20
-35.8221478476
 10
306.2149764018
 20
-37.9005310059
 10
306.6461291116
 20
-40.0075407708
 10
307.1701122826
 20
-42.1360476882
 10
307.7851529217
 20
-44.2788495645
 10
308.489169926
 20
-46.4286958364
 10
309.2797811247
 20
-48.5783121047
 10
310.1543113399
 20
-50.7204247484
 10
311.1098014381
 20
-52.8477855363
 10
312.1430183434
 20
-54.9531961529
 10
313.2504659767
 20
-57.0295325551
 10
314.4283970858
 20
-59.0697690779
 10
315.6728259247
 20
-61.0670022066
 10
316.9795417401
 20
-63.0144739366
 10
318.3441230194
 20
-64.90559464
 10
319.7619524514
 20
-66.7339653629
 10
321.2282325501
 20
-68.4933994775
 10
322.7380018879
 20
-70.1779436158
 10
324.2861518831
 20
-71.7818978136
 10
325.8674440864
 20
-73.2998347977
 10
327.4765279053
 20
-74.7266183497
 10
329.1079587096
 20
-76.0574206858
 10
330.7562162539
 20
-77.2877387921
 10
332.4157233564
 20
-78.4134096617
 10
334.0808647704
 20
-79.4306243805
 10
335.7460061843
 20
-80.335941016
 10
337.4055132868
 20
-81.1262962632
 10
339.0537708311
 20
-81.7990158103
 10
340.6852016355
 20
-82.3518233871
 10
342.2942854544
 20
-82.7828484678
 10
343.8755776576
 20
-83.0906326001
 10
345.4237276529
 20
-83.2741343397
 10
346.9334969907
 20
-83.332732775
 10
348.3997770894
 20
-83.2662296273
 10
349.8176065214
 20
-83.0748499222
 10
351.1821878007
 20
-82.7592412282
 10
352.4889036161
 20
-82.3204714651
 10
353.733332455
 20
-81.7600252909
 10
354.3292191063
 20
-81.4357004255
  0
LWPOLYLINE
  5
11D
330
1F
100
AcDbEntity
  8
0
  6
Continuous
 62
     1
370
    25
100
AcDbPolyline
 90
       15
 70
   128
 43
0.0
 10
313.3812271413
 20
-11.5581412988
 10
313.2504659767
 20
-11.6416439202
 10
312.1430183434
 20
-12.4393485015
 10
311.1098014381
 20
-13.3518322715
 10
310.1543113399
 20
-14.3760076739
 10
309.2797811247
 20
-15.5084092234
 10
308.489169926
 20
-16.7452052315
 10
307.7851529217
 20
-18.0822107721
 10
307.1701122826
 20
-19.5149018417
 10
306.6461291116
 20
-21.0384306672
 10
306.2149764018
 20
-22.6476421092
 10
305.8781130374
 20
-24.3370911057
 10
305.6366788576
 20
-26.101061096
 10
305.4914907991
 20
-27.9335833641
 10
305.4430401323
 20
-29.8284572347
  0
LWPOLYLINE
  5
11E
330
1F
100
AcDbEntity
  8
0
  6
Continuous
 62
     1
370
    25
100
AcDbPolyline
 90
       42
 70
   128
 43
0.0
 10
276.4516621037
 20
-80.0429968144
 10
278.1652541844
 20
-79.1097011118
 10
279.9699493454
 20
-78.2355033355
 10
281.8596410695
 20
-77.4233614941
 10
283.8279352382
 20
-76.6760236186
 10
285.868171767
 20
-75.9960184636
 10
287.9734471412
 20
-75.3856469514
 10
290.1366377756
 20
-74.8469743861
 10
292.3504241176
 20
-74.3818234649
 10
294.6073154151
 20
-73.9917681115
 10
296.8996750623
 20
-73.6781281497
 10
299.2197464398
 20
-73.4419648378
 10
301.5596791605
 20
-73.2840772776
 10
303.9115556326
 20
-73.2049997108
 10
306.2674178508
 20
-73.2049997108
 10
308.619294323
 20
-73.2840772776
 10
310.9592270437
 20
-73.4419648378
 10
313.2792984212
 20
-73.6781281497
 10
315.5716580684
 20
-73.9917681115
 10
317.8285493659
 20
-74.3818234649
 10
320.0423357079
 20
-74.8469743861
 10
322.2055263422
 20
-75.3856469514
 10
324.3108017165
 20
-75.9960184636
 10
326.3510382453
 20
-76.6760236186
 10
328.319332414
 20
-77.4233614941
 10
330.2090241381
 20
-78.2355033355
 10
332.0137192991
 20
-79.1097011118
 10
333.7273113798
 20
-80.0429968144
 10
335.344002127
 20
-81.0322324661
 10
336.858321171
 20
-82.0740608066
 10
338.2651445354
 20
-83.1649566186
 10
339.5597119754
 20
-84.3012286559
 10
340.7376430845
 20
-85.4790321337
 10
341.7949521167
 20
-86.6943817379
 10
342.7280614729
 20
-87.94316511
 10
343.5338138064
 20
-89.2211567624
 10
344.2094827064
 20
-90.5240323759
 10
344.7527819232
 20
-91.8473834319
 10
345.1618731043
 20
-93.1867321293
 10
345.4353720145
 20
-94.5375465361
 10
345.5723532201
 20
-95.8952559238
 10
345.5894867417
 20
-96.5752610788
  0
LWPOLYLINE
  5
11F
330
1F
100
AcDbEntity
  8
0
  6
Continuous
 62
     1
370
    25
100
AcDbPolyline
 90
       15
 70
   128
 43
0.0
 10
264.5995965619
 20
-96.0528896283
 10
264.6066202634
 20
-95.8952559238
 10
264.743601469
 20
-94.5375465361
 10
265.0171003792
 20
-93.1867321293
 10
265.4261915602
 20
-91.8473834319
 10
265.969490777
 20
-90.5240323759
 10
266.645159677
 20
-89.2211567624
 10
267.4509120105
 20
-87.9431651099
 10
268.3840213668
 20
-86.6943817378
 10
269.4413303989
 20
-85.4790321337
 10
270.619261508
 20
-84.3012286559
 10
271.913828948
 20
-83.1649566186
 10
273.3206523125
 20
-82.0740608066
 10
274.8349713565
 20
-81.0322324661
 10
276.4516621037
 20
-80.0429968144
  0
ARC
  5
120
330
1F
100
AcDbEntity
  8
0
  6
Continuous
 62
     1
370
    25
100
AcDbCircle
 10
303.2769787562
 20
-64.1434263796
 30
0.0
 40
53.75779363238173
100
AcDbArc
 50
21.180078111
 51
38.8145453563
  0
ARC
  5
121
330
1F
100
AcDbEntity
  8
0
  6
Continuous
 62
     1
370
    25
100
AcDbCircle
 10
305.0894867417
 20
-60.9911211138
 30
0.0
 40
53.77066410374001
100
AcDbArc
 50
261.214436872
 51
278.785563128
  0
ENDSEC
  0
SECTION
  2
OBJECTS
  0
DICTIONARY
  5
C
330
0
100
AcDbDictionary
281
     1
  3
ACAD_GROUP
350
D
  3
ACAD_LAYOUT
350
1A
  3
ACAD_MLINESTYLE
350
17
  3
ACAD_PLOTSETTINGS
350
19
  3
ACAD_PLOTSTYLENAME
350
E
  3
ACAD_SCALELIST
350
47
  3
DWGPROPS
350
122
  0
DICTIONARY
  5
D
102
{ACAD_REACTORS
330
C
102
}
330
C
100
AcDbDictionary
281
     1
  0
DICTIONARY
  5
1A
102
{ACAD_REACTORS
330
C
102
}
330
C
100
AcDbDictionary
281
     1
  3
Layout1
350
1E
  3
Layout2
350
26
  3
Model
350
22
  0
DICTIONARY
  5
17
102
{ACAD_REACTORS
330
C
102
}
330
C
100
AcDbDictionary
281
     1
  3
Standard
350
18
  0
DICTIONARY
  5
19
102
{ACAD_REACTORS
330
C
102
}
330
C
100
AcDbDictionary
281
     1
  0
ACDBDICTIONARYWDFLT
  5
E
102
{ACAD_REACTORS
330
C
102
}
330
C
100
AcDbDictionary
281
     1
  3
Normal
350
F
100
AcDbDictionaryWithDefault
340
F
  0
DICTIONARY
  5
47
102
{ACAD_REACTORS
330
C
102
}
330
C
100
AcDbDictionary
281
     1
  3
A0
350
48
  3
A1
350
49
  3
A2
350
4A
  3
A3
350
4B
  3
A4
350
4C
  3
A5
350
4D
  3
A6
350
4E
  3
A7
350
4F
  3
A8
350
50
  3
A9
350
51
  3
B0
350
52
  3
B1
350
53
  3
B2
350
54
  3
B3
350
55
  3
B4
350
56
  3
B5
350
57
  3
B6
350
58
  3
B7
350
59
  3
B8
350
5A
  3
B9
350
5B
  3
C0
350
5C
  3
C1
350
5D
  3
C2
350
5E
  3
C3
350
5F
  3
C4
350
60
  3
C5
350
61
  3
C6
350
62
  3
C7
350
63
  3
C8
350
64
  3
C9
350
65
  3
D0
350
66
  3
D1
350
67
  3
D2
350
68
  0
XRECORD
  5
122
102
{ACAD_REACTORS
330
C
102
}
330
C
100
AcDbXrecord
280
     1
  1
DWGPROPS COOKIE
  2

  3

  4

  6

  7

  8
b.kav
  9

300
=
301
=
302
=
303
=
304
=
305
=
306
=
307
=
308
=
309
=
 40
0.0
 41
2459741.479552488
 42
2459741.479552569
  1

 90
        0
  0
LAYOUT
  5
1E
102
{ACAD_REACTORS
330
1A
102
}
330
1A
100
AcDbPlotSettings
  1

  2
none_device
  4

  6

 40
0.0
 41
0.0
 42
0.0
 43
0.0
 44
0.0
 45
0.0
 46
0.0
 47
0.0
 48
0.0
 49
0.0
140
0.0
141
0.0
142
1.0
143
1.0
 70
   688
 72
     1
 73
     0
 74
     5
  7

 75
    16
147
1.0
148
0.0
149
0.0
100
AcDbLayout
  1
Layout1
 70
     1
 71
     1
 10
0.0
 20
0.0
 11
420.0
 21
297.0
 12
0.0
 22
0.0
 32
0.0
 14
1.0000000000E+20
 24
1.0000000000E+20
 34
1.0000000000E+20
 15
-1.0000000000E+20
 25
-1.0000000000E+20
 35
-1.0000000000E+20
146
0.0
 13
0.0
 23
0.0
 33
0.0
 16
1.0
 26
0.0
 36
0.0
 17
0.0
 27
1.0
 37
0.0
 76
     0
330
1B
  0
LAYOUT
  5
26
102
{ACAD_REACTORS
330
1A
102
}
330
1A
100
AcDbPlotSettings
  1

  2
none_device
  4

  6

 40
0.0
 41
0.0
 42
0.0
 43
0.0
 44
0.0
 45
0.0
 46
0.0
 47
0.0
 48
0.0
 49
0.0
140
0.0
141
0.0
142
1.0
143
1.0
 70
   688
 72
     1
 73
     0
 74
     5
  7

 75
    16
147
1.0
148
0.0
149
0.0
100
AcDbLayout
  1
Layout2
 70
     1
 71
     2
 10
0.0
 20
0.0
 11
0.0
 21
0.0
 12
0.0
 22
0.0
 32
0.0
 14
0.0
 24
0.0
 34
0.0
 15
0.0
 25
0.0
 35
0.0
146
0.0
 13
0.0
 23
0.0
 33
0.0
 16
1.0
 26
0.0
 36
0.0
 17
0.0
 27
1.0
 37
0.0
 76
     0
330
23
  0
LAYOUT
  5
22
102
{ACAD_REACTORS
330
1A
102
}
330
1A
100
AcDbPlotSettings
  1

  2
none_device
  4
Letter_(8.50_x_11.00_Inches)
  6

 40
6.35
 41
6.35
 42
6.35000508
 43
6.35000508
 44
215.9
 45
279.4
 46
0.0
 47
0.0
 48
0.0
 49
0.0
140
0.0
141
0.0
142
1.0
143
1.0
 70
  1712
 72
     1
 73
     0
 74
     0
  7

 75
     0
147
1.0
148
0.0
149
0.0
100
AcDbLayout
  1
Model
 70
     1
 71
     0
 10
0.0
 20
0.0
 11
279.4
 21
215.9
 12
0.0
 22
0.0
 32
0.0
 14
0.0
 24
0.0
 34
0.0
 15
279.4
 25
215.9
 35
0.0
146
0.0
 13
0.0
 23
0.0
 33
0.0
 16
1.0
 26
0.0
 36
0.0
 17
0.0
 27
1.0
 37
0.0
 76
     0
330
1F
331
29
  0
MLINESTYLE
  5
18
102
{ACAD_REACTORS
330
17
102
}
330
17
100
AcDbMlineStyle
  2
Standard
 70
     0
  3

 62
   256
 51
90.0
 52
90.0
 71
     2
 49
0.5
 62
   256
  6
BYLAYER
 49
-0.5
 62
   256
  6
BYLAYER
  0
ACDBPLACEHOLDER
  5
F
102
{ACAD_REACTORS
330
E
102
}
330
E
  0
SCALE
  5
48
102
{ACAD_REACTORS
330
47
102
}
330
47
100
AcDbScale
 70
     0
300
1:1
140
1.0
141
1.0
290
     1
  0
SCALE
  5
49
102
{ACAD_REACTORS
330
47
102
}
330
47
100
AcDbScale
 70
     0
300
1:2
140
1.0
141
2.0
290
     0
  0
SCALE
  5
4A
102
{ACAD_REACTORS
330
47
102
}
330
47
100
AcDbScale
 70
     0
300
1:4
140
1.0
141
4.0
290
     0
  0
SCALE
  5
4B
102
{ACAD_REACTORS
330
47
102
}
330
47
100
AcDbScale
 70
     0
300
1:5
140
1.0
141
5.0
290
     0
  0
SCALE
  5
4C
102
{ACAD_REACTORS
330
47
102
}
330
47
100
AcDbScale
 70
     0
300
1:8
140
1.0
141
8.0
290
     0
  0
SCALE
  5
4D
102
{ACAD_REACTORS
330
47
102
}
330
47
100
AcDbScale
 70
     0
300
1:10
140
1.0
141
10.0
290
     0
  0
SCALE
  5
4E
102
{ACAD_REACTORS
330
47
102
}
330
47
100
AcDbScale
 70
     0
300
1:16
140
1.0
141
16.0
290
     0
  0
SCALE
  5
4F
102
{ACAD_REACTORS
330
47
102
}
330
47
100
AcDbScale
 70
     0
300
1:20
140
1.0
141
20.0
290
     0
  0
SCALE
  5
50
102
{ACAD_REACTORS
330
47
102
}
330
47
100
AcDbScale
 70
     0
300
1:30
140
1.0
141
30.0
290
     0
  0
SCALE
  5
51
102
{ACAD_REACTORS
330
47
102
}
330
47
100
AcDbScale
 70
     0
300
1:40
140
1.0
141
40.0
290
     0
  0
SCALE
  5
52
102
{ACAD_REACTORS
330
47
102
}
330
47
100
AcDbScale
 70
     0
300
1:50
140
1.0
141
50.0
290
     0
  0
SCALE
  5
53
102
{ACAD_REACTORS
330
47
102
}
330
47
100
AcDbScale
 70
     0
300
1:100
140
1.0
141
100.0
290
     0
  0
SCALE
  5
54
102
{ACAD_REACTORS
330
47
102
}
330
47
100
AcDbScale
 70
     0
300
2:1
140
2.0
141
1.0
290
     0
  0
SCALE
  5
55
102
{ACAD_REACTORS
330
47
102
}
330
47
100
AcDbScale
 70
     0
300
4:1
140
4.0
141
1.0
290
     0
  0
SCALE
  5
56
102
{ACAD_REACTORS
330
47
102
}
330
47
100
AcDbScale
 70
     0
300
8:1
140
8.0
141
1.0
290
     0
  0
SCALE
  5
57
102
{ACAD_REACTORS
330
47
102
}
330
47
100
AcDbScale
 70
     0
300
10:1
140
10.0
141
1.0
290
     0
  0
SCALE
  5
58
102
{ACAD_REACTORS
330
47
102
}
330
47
100
AcDbScale
 70
     0
300
100:1
140
100.0
141
1.0
290
     0
  0
SCALE
  5
59
102
{ACAD_REACTORS
330
47
102
}
330
47
100
AcDbScale
 70
     0
300
1/128" = 1'-0"
140
0.0078125
141
12.0
290
     0
  0
SCALE
  5
5A
102
{ACAD_REACTORS
330
47
102
}
330
47
100
AcDbScale
 70
     0
300
1/64" = 1'-0"
140
0.015625
141
12.0
290
     0
  0
SCALE
  5
5B
102
{ACAD_REACTORS
330
47
102
}
330
47
100
AcDbScale
 70
     0
300
1/32" = 1'-0"
140
0.03125
141
12.0
290
     0
  0
SCALE
  5
5C
102
{ACAD_REACTORS
330
47
102
}
330
47
100
AcDbScale
 70
     0
300
1/16" = 1'-0"
140
0.0625
141
12.0
290
     0
  0
SCALE
  5
5D
102
{ACAD_REACTORS
330
47
102
}
330
47
100
AcDbScale
 70
     0
300
3/32" = 1'-0"
140
0.09375
141
12.0
290
     0
  0
SCALE
  5
5E
102
{ACAD_REACTORS
330
47
102
}
330
47
100
AcDbScale
 70
     0
300
1/8" = 1'-0"
140
0.125
141
12.0
290
     0
  0
SCALE
  5
5F
102
{ACAD_REACTORS
330
47
102
}
330
47
100
AcDbScale
 70
     0
300
3/16" = 1'-0"
140
0.1875
141
12.0
290
     0
  0
SCALE
  5
60
102
{ACAD_REACTORS
330
47
102
}
330
47
100
AcDbScale
 70
     0
300
1/4" = 1'-0"
140
0.25
141
12.0
290
     0
  0
SCALE
  5
61
102
{ACAD_REACTORS
330
47
102
}
330
47
100
AcDbScale
 70
     0
300
3/8" = 1'-0"
140
0.375
141
12.0
290
     0
  0
SCALE
  5
62
102
{ACAD_REACTORS
330
47
102
}
330
47
100
AcDbScale
 70
     0
300
1/2" = 1'-0"
140
0.5
141
12.0
290
     0
  0
SCALE
  5
63
102
{ACAD_REACTORS
330
47
102
}
330
47
100
AcDbScale
 70
     0
300
3/4" = 1'-0"
140
0.75
141
12.0
290
     0
  0
SCALE
  5
64
102
{ACAD_REACTORS
330
47
102
}
330
47
100
AcDbScale
 70
     0
300
1" = 1'-0"
140
1.0
141
12.0
290
     0
  0
SCALE
  5
65
102
{ACAD_REACTORS
330
47
102
}
330
47
100
AcDbScale
 70
     0
300
1-1/2" = 1'-0"
140
1.5
141
12.0
290
     0
  0
SCALE
  5
66
102
{ACAD_REACTORS
330
47
102
}
330
47
100
AcDbScale
 70
     0
300
3" = 1'-0"
140
3.0
141
12.0
290
     0
  0
SCALE
  5
67
102
{ACAD_REACTORS
330
47
102
}
330
47
100
AcDbScale
 70
     0
300
6" = 1'-0"
140
6.0
141
12.0
290
     0
  0
SCALE
  5
68
102
{ACAD_REACTORS
330
47
102
}
330
47
100
AcDbScale
 70
     0
300
1'-0" = 1'-0"
140
12.0
141
12.0
290
     0
  0
ENDSEC
  0
EOF
